ISO-10303-21;
HEADER;
FILE_DESCRIPTION (( 'STEP AP203' ),
    '1' );
FILE_NAME ('200021.step',
    '2021-11-29T14:49:16',
    ( '' ),
    ( '' ),
    'SwSTEP 2.0',
    'SolidWorks 2019',
    '' );
FILE_SCHEMA (( 'CONFIG_CONTROL_DESIGN' ));
ENDSEC;

DATA;
#1 = DIRECTION ( 'NONE',  ( 0.0000000000000000000, 1.000000000000000000, 0.0000000000000000000 ) ) ;
#2 = ADVANCED_FACE ( 'NONE', ( #247 ), #128, .F. ) ;
#3 = DIRECTION ( 'NONE',  ( 4.275831445896957731E-31, 1.000000000000000000, 1.224646799147352961E-16 ) ) ;
#4 = AXIS2_PLACEMENT_3D ( 'NONE', #92, #286, #234 ) ;
#5 = CC_DESIGN_APPROVAL ( #235, ( #163 ) ) ;
#6 = VERTEX_POINT ( 'NONE', #170 ) ;
#7 = CC_DESIGN_PERSON_AND_ORGANIZATION_ASSIGNMENT ( #136, #302, ( #173 ) ) ;
#8 =( LENGTH_UNIT ( ) NAMED_UNIT ( * ) SI_UNIT ( .MILLI., .METRE. ) );
#9 = AXIS2_PLACEMENT_3D ( 'NONE', #13, #178, #271 ) ;
#10 = ADVANCED_FACE ( 'NONE', ( #40, #292 ), #38, .T. ) ;
#11 = LOCAL_TIME ( 15, 49, 16.00000000000000000, #205 ) ;
#12 = ADVANCED_FACE ( 'NONE', ( #153, #198 ), #34, .T. ) ;
#13 = CARTESIAN_POINT ( 'NONE',  ( 1.326762908760390423E-13, -4.653657836759941152E-15, 38.00000000000000000 ) ) ;
#14 = EDGE_LOOP ( 'NONE', ( #31 ) ) ;
#15 = LOCAL_TIME ( 15, 49, 16.00000000000000000, #157 ) ;
#16 = EDGE_LOOP ( 'NONE', ( #72 ) ) ;
#17 = APPROVAL_DATE_TIME ( #253, #235 ) ;
#18 = DIRECTION ( 'NONE',  ( 4.275831445896957731E-31, 1.000000000000000000, 1.224646799147352961E-16 ) ) ;
#19 = PERSON_AND_ORGANIZATION ( #100, #156 ) ;
#20 = FACE_BOUND ( 'NONE', #103, .T. ) ;
#21 = DATE_TIME_ROLE ( 'classification_date' ) ;
#22 = AXIS2_PLACEMENT_3D ( 'NONE', #273, #86, #245 ) ;
#23 = VERTEX_POINT ( 'NONE', #94 ) ;
#24 = FACE_OUTER_BOUND ( 'NONE', #46, .T. ) ;
#25 = APPROVAL ( #226, 'UNSPECIFIED' ) ;
#26 = DIRECTION ( 'NONE',  ( -3.491481338843133355E-15, 1.224646799147352961E-16, -1.000000000000000000 ) ) ;
#27 = CARTESIAN_POINT ( 'NONE',  ( 1.416851402830312905E-14, -4.969645737583982706E-16, 4.058023702053559667 ) ) ;
#28 = AXIS2_PLACEMENT_3D ( 'NONE', #48, #232, #287 ) ;
#29 = ORIENTED_EDGE ( 'NONE', *, *, #199, .F. ) ;
#30 = MANIFOLD_SOLID_BREP ( 'Corps-Déplacer/Copier1[1]', #111 ) ;
#31 = ORIENTED_EDGE ( 'NONE', *, *, #263, .T. ) ;
#32 = CC_DESIGN_PERSON_AND_ORGANIZATION_ASSIGNMENT ( #69, #257, ( #112 ) ) ;
#33 = CARTESIAN_POINT ( 'NONE',  ( 1.396592535537253342E-14, 2.988271366953742786E-33, 4.000000000000000000 ) ) ;
#34 = CYLINDRICAL_SURFACE ( 'NONE', #70, 0.3649999999999997691 ) ;
#35 = CARTESIAN_POINT ( 'NONE',  ( 3.491481338843132369E-16, -1.224646799147352498E-17, 0.09999999999999996392 ) ) ;
#36 = AXIS2_PLACEMENT_3D ( 'NONE', #119, #116, #207 ) ;
#37 = APPROVAL_PERSON_ORGANIZATION ( #63, #25, #201 ) ;
#38 = CYLINDRICAL_SURFACE ( 'NONE', #255, 0.3984999999999997433 ) ;
#39 = PERSON_AND_ORGANIZATION ( #100, #156 ) ;
#40 = FACE_OUTER_BOUND ( 'NONE', #78, .T. ) ;
#41 = VERTEX_POINT ( 'NONE', #166 ) ;
#42 = ADVANCED_FACE ( 'NONE', ( #177, #108 ), #295, .T. ) ;
#43 = VERTEX_POINT ( 'NONE', #258 ) ;
#44 = SECURITY_CLASSIFICATION_LEVEL ( 'unclassified' ) ;
#45 = VERTEX_POINT ( 'NONE', #90 ) ;
#46 = EDGE_LOOP ( 'NONE', ( #240 ) ) ;
#47 = PERSON_AND_ORGANIZATION ( #100, #156 ) ;
#48 = CARTESIAN_POINT ( 'NONE',  ( 3.491481338843132369E-16, -1.224646799147352498E-17, 0.09999999999999996392 ) ) ;
#49 = EDGE_CURVE ( 'NONE', #6, #6, #219, .T. ) ;
#50 = CARTESIAN_POINT ( 'NONE',  ( 5.101711399985324237E-14, -1.789439475634067699E-15, 14.61188219231818763 ) ) ;
#51 = UNCERTAINTY_MEASURE_WITH_UNIT (LENGTH_MEASURE( 1.000000000000000082E-05 ), #8, 'distance_accuracy_value', 'NONE');
#52 = ADVANCED_FACE ( 'NONE', ( #182, #55 ), #96, .T. ) ;
#53 = AXIS2_PLACEMENT_3D ( 'NONE', #106, #104, #59 ) ;
#54 = AXIS2_PLACEMENT_3D ( 'NONE', #91, #181, #275 ) ;
#55 = FACE_BOUND ( 'NONE', #152, .T. ) ;
#56 = AXIS2_PLACEMENT_3D ( 'NONE', #200, #296, #196 ) ;
#57 = ORIENTED_EDGE ( 'NONE', *, *, #171, .T. ) ;
#58 = PRODUCT_RELATED_PRODUCT_CATEGORY ( 'detail', '', ( #173 ) ) ;
#59 = DIRECTION ( 'NONE',  ( -4.275831445896957731E-31, -1.000000000000000000, -1.224646799147352961E-16 ) ) ;
#60 = PRODUCT_DEFINITION_SHAPE ( 'NONE', 'NONE',  #209 ) ;
#61 = DIRECTION ( 'NONE',  ( -3.491481338843133355E-15, 1.224646799147352961E-16, -1.000000000000000000 ) ) ;
#62 = CLOSED_SHELL ( 'NONE', ( #155, #76, #10, #85 ) ) ;
#63 = PERSON_AND_ORGANIZATION ( #100, #156 ) ;
#64 = FACE_BOUND ( 'NONE', #123, .T. ) ;
#65 = COORDINATED_UNIVERSAL_TIME_OFFSET ( 1, 0, .AHEAD. ) ;
#66 = CARTESIAN_POINT ( 'NONE',  ( 1.416851402830312905E-14, -4.969645737583982706E-16, 4.058023702053559667 ) ) ;
#67 = CC_DESIGN_DATE_AND_TIME_ASSIGNMENT ( #297, #89, ( #209 ) ) ;
#68 = DIRECTION ( 'NONE',  ( -4.275831445896957731E-31, -1.000000000000000000, -1.224646799147352961E-16 ) ) ;
#69 = PERSON_AND_ORGANIZATION ( #100, #156 ) ;
#70 = AXIS2_PLACEMENT_3D ( 'NONE', #276, #132, #102 ) ;
#71 = FACE_OUTER_BOUND ( 'NONE', #16, .T. ) ;
#72 = ORIENTED_EDGE ( 'NONE', *, *, #250, .T. ) ;
#73 = DIRECTION ( 'NONE',  ( 0.0000000000000000000, 1.000000000000000000, 0.0000000000000000000 ) ) ;
#74 = DIRECTION ( 'NONE',  ( -3.491481338843133355E-15, 1.224646799147352961E-16, -1.000000000000000000 ) ) ;
#75 = AXIS2_PLACEMENT_3D ( 'NONE', #193, #26, #3 ) ;
#76 = ADVANCED_FACE ( 'NONE', ( #64, #150 ), #229, .T. ) ;
#77 = ORIENTED_EDGE ( 'NONE', *, *, #165, .F. ) ;
#78 = EDGE_LOOP ( 'NONE', ( #259 ) ) ;
#79 = CIRCLE ( 'NONE', #246, 0.3649999999999994915 ) ;
#80 = CIRCLE ( 'NONE', #265, 0.3953844939755814525 ) ;
#81 = ADVANCED_FACE ( 'NONE', ( #129 ), #158, .F. ) ;
#82 = EDGE_LOOP ( 'NONE', ( #29 ) ) ;
#83 = EDGE_LOOP ( 'NONE', ( #242 ) ) ;
#84 = DIRECTION ( 'NONE',  ( 4.275831445896957731E-31, 1.000000000000000000, 1.224646799147353207E-16 ) ) ;
#85 = ADVANCED_FACE ( 'NONE', ( #291 ), #249, .T. ) ;
#86 = DIRECTION ( 'NONE',  ( -3.491481338843133355E-15, 1.224646799147352961E-16, -1.000000000000000000 ) ) ;
#87 = CALENDAR_DATE ( 2021, 29, 11 ) ;
#88 = EDGE_LOOP ( 'NONE', ( #154 ) ) ;
#89 = DATE_TIME_ROLE ( 'creation_date' ) ;
#90 = CARTESIAN_POINT ( 'NONE',  ( 2.914442945444142440E-14, 0.3953844939755803978, 8.347296355333845952 ) ) ;
#91 = CARTESIAN_POINT ( 'NONE',  ( 0.0000000000000000000, 0.0000000000000000000, 0.0000000000000000000 ) ) ;
#92 = CARTESIAN_POINT ( 'NONE',  ( 2.793185071074506684E-14, -9.797174393178823685E-16, 8.000000000000000000 ) ) ;
#93 = SHAPE_DEFINITION_REPRESENTATION ( #60, #221 ) ;
#94 = CARTESIAN_POINT ( 'NONE',  ( 1.316288464743861212E-13, 1.499999999999998668, 37.69999999999999574 ) ) ;
#95 = CALENDAR_DATE ( 2021, 29, 11 ) ;
#96 = CONICAL_SURFACE ( 'NONE', #22, 1.200000000000003286, 0.7853981633974453924 ) ;
#97 = CARTESIAN_POINT ( 'NONE',  ( 1.326762908760390423E-13, 1.199999999999998845, 38.00000000000000000 ) ) ;
#98 = DIRECTION ( 'NONE',  ( 0.0000000000000000000, 1.000000000000000000, 0.0000000000000000000 ) ) ;
#99 = EDGE_LOOP ( 'NONE', ( #167 ) ) ;
#100 = PERSON ( 'UNSPECIFIED', 'UNSPECIFIED', 'UNSPECIFIED', ('UNSPECIFIED'), ('UNSPECIFIED'), ('UNSPECIFIED') ) ;
#101 = CC_DESIGN_PERSON_AND_ORGANIZATION_ASSIGNMENT ( #47, #231, ( #163 ) ) ;
#102 = DIRECTION ( 'NONE',  ( 4.275831445896957731E-31, 1.000000000000000000, 1.224646799147352961E-16 ) ) ;
#103 = EDGE_LOOP ( 'NONE', ( #268 ) ) ;
#104 = DIRECTION ( 'NONE',  ( 3.491481338843133355E-15, -1.224646799147352961E-16, 1.000000000000000000 ) ) ;
#105 = EDGE_CURVE ( 'NONE', #301, #301, #130, .T. ) ;
#106 = CARTESIAN_POINT ( 'NONE',  ( 1.396592535537253342E-14, 2.988271366953742786E-33, 4.000000000000000000 ) ) ;
#107 = CALENDAR_DATE ( 2021, 29, 11 ) ;
#108 = FACE_OUTER_BOUND ( 'NONE', #213, .T. ) ;
#109 =( NAMED_UNIT ( * ) PLANE_ANGLE_UNIT ( ) SI_UNIT ( $, .RADIAN. ) );
#110 = FACE_OUTER_BOUND ( 'NONE', #124, .T. ) ;
#111 = CLOSED_SHELL ( 'NONE', ( #2, #133, #12, #117, #266, #42, #52, #81 ) ) ;
#112 = SECURITY_CLASSIFICATION ( '', '', #44 ) ;
#113 = APPROVAL_STATUS ( 'not_yet_approved' ) ;
#114 = DIRECTION ( 'NONE',  ( -3.491481338843133355E-15, 1.224646799147352961E-16, -1.000000000000000000 ) ) ;
#115 = APPROVAL_DATE_TIME ( #233, #272 ) ;
#116 = DIRECTION ( 'NONE',  ( -3.491481338843133355E-15, 1.224646799147352961E-16, -1.000000000000000000 ) ) ;
#117 = ADVANCED_FACE ( 'NONE', ( #24, #303 ), #149, .F. ) ;
#118 = PERSON_AND_ORGANIZATION_ROLE ( 'creator' ) ;
#119 = CARTESIAN_POINT ( 'NONE',  ( 2.793185071074506684E-14, -8.673617379884035472E-16, 8.000000000000000000 ) ) ;
#120 = CC_DESIGN_APPROVAL ( #25, ( #209 ) ) ;
#121 = CARTESIAN_POINT ( 'NONE',  ( 1.416851402830312905E-14, 0.3649999999999989919, 4.058023702053559667 ) ) ;
#122 = AXIS2_PLACEMENT_3D ( 'NONE', #228, #162, #192 ) ;
#123 = EDGE_LOOP ( 'NONE', ( #217 ) ) ;
#124 = EDGE_LOOP ( 'NONE', ( #147 ) ) ;
#125 = APPLICATION_CONTEXT ( 'configuration controlled 3d designs of mechanical parts and assemblies' ) ;
#126 = DIRECTION ( 'NONE',  ( 3.491481338843133355E-15, -1.224646799147352961E-16, 1.000000000000000000 ) ) ;
#127 = EDGE_CURVE ( 'NONE', #137, #137, #189, .T. ) ;
#128 = PLANE ( 'NONE',  #53 ) ;
#129 = FACE_OUTER_BOUND ( 'NONE', #290, .T. ) ;
#130 = CIRCLE ( 'NONE', #9, 1.200000000000003286 ) ;
#131 = LOCAL_TIME ( 15, 49, 16.00000000000000000, #191 ) ;
#132 = DIRECTION ( 'NONE',  ( -3.491481338843133355E-15, 1.224646799147352961E-16, -1.000000000000000000 ) ) ;
#133 = ADVANCED_FACE ( 'NONE', ( #281, #20 ), #174, .T. ) ;
#134 = PERSON_AND_ORGANIZATION ( #100, #156 ) ;
#135 = DIRECTION ( 'NONE',  ( -4.832948417533847419E-31, -1.000000000000000000, -1.360354043269141472E-16 ) ) ;
#136 = PERSON_AND_ORGANIZATION ( #100, #156 ) ;
#137 = VERTEX_POINT ( 'NONE', #262 ) ;
#138 = AXIS2_PLACEMENT_3D ( 'NONE', #35, #218, #135 ) ;
#139 = APPROVAL_PERSON_ORGANIZATION ( #39, #235, #186 ) ;
#140 = COORDINATED_UNIVERSAL_TIME_OFFSET ( 1, 0, .AHEAD. ) ;
#141 = CARTESIAN_POINT ( 'NONE',  ( 1.316288464743861212E-13, -4.616918432785520292E-15, 37.69999999999999574 ) ) ;
#142 = DATE_AND_TIME ( #107, #288 ) ;
#143 = VERTEX_POINT ( 'NONE', #188 ) ;
#144 = CC_DESIGN_PERSON_AND_ORGANIZATION_ASSIGNMENT ( #134, #164, ( #163 ) ) ;
#145 = ORIENTED_EDGE ( 'NONE', *, *, #194, .F. ) ;
#146 = VERTEX_POINT ( 'NONE', #121 ) ;
#147 = ORIENTED_EDGE ( 'NONE', *, *, #199, .T. ) ;
#148 = DIRECTION ( 'NONE',  ( 3.491481338843133355E-15, -1.224646799147352961E-16, 1.000000000000000000 ) ) ;
#149 = TOROIDAL_SURFACE ( 'NONE', #36, 2.364999999999999769, 2.000000000000000000 ) ;
#150 = FACE_OUTER_BOUND ( 'NONE', #83, .T. ) ;
#151 = CIRCLE ( 'NONE', #283, 1.500000000000003331 ) ;
#152 = EDGE_LOOP ( 'NONE', ( #284 ) ) ;
#153 = FACE_OUTER_BOUND ( 'NONE', #236, .T. ) ;
#154 = ORIENTED_EDGE ( 'NONE', *, *, #49, .T. ) ;
#155 = ADVANCED_FACE ( 'NONE', ( #71 ), #279, .F. ) ;
#156 = ORGANIZATION ( 'UNSPECIFIED', 'UNSPECIFIED', '' ) ;
#157 = COORDINATED_UNIVERSAL_TIME_OFFSET ( 1, 0, .AHEAD. ) ;
#158 = PLANE ( 'NONE',  #56 ) ;
#159 = MECHANICAL_CONTEXT ( 'NONE', #300, 'mechanical' ) ;
#160 = DIRECTION ( 'NONE',  ( 3.491481338843133355E-15, -1.224646799147352961E-16, 1.000000000000000000 ) ) ;
#161 =( NAMED_UNIT ( * ) SI_UNIT ( $, .STERADIAN. ) SOLID_ANGLE_UNIT ( ) );
#162 = DIRECTION ( 'NONE',  ( -3.491481338843133355E-15, 1.224646799147352961E-16, -1.000000000000000000 ) ) ;
#163 = PRODUCT_DEFINITION_FORMATION_WITH_SPECIFIED_SOURCE ( 'ANY', '', #173, .NOT_KNOWN. ) ;
#164 = PERSON_AND_ORGANIZATION_ROLE ( 'design_supplier' ) ;
#165 = EDGE_CURVE ( 'NONE', #146, #146, #79, .T. ) ;
#166 = CARTESIAN_POINT ( 'NONE',  ( 1.396592535537253342E-14, 0.3984999999999995213, 4.000000000000000000 ) ) ;
#167 = ORIENTED_EDGE ( 'NONE', *, *, #171, .F. ) ;
#168 = DIRECTION ( 'NONE',  ( -3.491481338843133355E-15, 1.224646799147352961E-16, -1.000000000000000000 ) ) ;
#169 = EDGE_LOOP ( 'NONE', ( #238 ) ) ;
#170 = CARTESIAN_POINT ( 'NONE',  ( 1.396592535537253342E-14, 0.3984999999999995213, 4.000000000000000000 ) ) ;
#171 = EDGE_CURVE ( 'NONE', #41, #41, #256, .T. ) ;
#172 = EDGE_LOOP ( 'NONE', ( #180 ) ) ;
#173 = PRODUCT ( '200021', '200021', '', ( #159 ) ) ;
#174 = CONICAL_SURFACE ( 'NONE', #208, 0.3649999999999994915, 0.5235987755982914882 ) ;
#175 = CC_DESIGN_APPROVAL ( #272, ( #112 ) ) ;
#176 = ORIENTED_EDGE ( 'NONE', *, *, #194, .T. ) ;
#177 = FACE_OUTER_BOUND ( 'NONE', #82, .T. ) ;
#178 = DIRECTION ( 'NONE',  ( -3.491481338843133355E-15, 1.224646799147352961E-16, -1.000000000000000000 ) ) ;
#179 = DIRECTION ( 'NONE',  ( -3.491481338843133355E-15, 1.224646799147352961E-16, -1.000000000000000000 ) ) ;
#180 = ORIENTED_EDGE ( 'NONE', *, *, #127, .T. ) ;
#181 = DIRECTION ( 'NONE',  ( 0.0000000000000000000, 0.0000000000000000000, 1.000000000000000000 ) ) ;
#182 = FACE_OUTER_BOUND ( 'NONE', #212, .T. ) ;
#183 = LOCAL_TIME ( 15, 49, 16.00000000000000000, #140 ) ;
#184 = APPLICATION_PROTOCOL_DEFINITION ( 'international standard', 'config_control_design', 1994, #300 ) ;
#185 = VERTEX_POINT ( 'NONE', #211 ) ;
#186 = APPROVAL_ROLE ( '' ) ;
#187 = DIRECTION ( 'NONE',  ( -3.491481338843133355E-15, 1.224646799147352961E-16, -1.000000000000000000 ) ) ;
#188 = CARTESIAN_POINT ( 'NONE',  ( 5.101711399985324237E-14, 1.499999999999995559, 14.61188219231818763 ) ) ;
#189 = CIRCLE ( 'NONE', #4, 0.3649999999999999911 ) ;
#190 = CIRCLE ( 'NONE', #204, 1.499999999999997113 ) ;
#191 = COORDINATED_UNIVERSAL_TIME_OFFSET ( 1, 0, .AHEAD. ) ;
#192 = DIRECTION ( 'NONE',  ( 0.0000000000000000000, 1.000000000000000000, 0.0000000000000000000 ) ) ;
#193 = CARTESIAN_POINT ( 'NONE',  ( -1.457053587560131344E-31, 5.110656019667907501E-33, -4.173167335452267627E-17 ) ) ;
#194 = EDGE_CURVE ( 'NONE', #23, #23, #151, .T. ) ;
#195 =( GEOMETRIC_REPRESENTATION_CONTEXT ( 3 ) GLOBAL_UNCERTAINTY_ASSIGNED_CONTEXT ( ( #51 ) ) GLOBAL_UNIT_ASSIGNED_CONTEXT ( ( #8, #109, #161 ) ) REPRESENTATION_CONTEXT ( 'NONE', 'WORKASPACE' ) );
#196 = DIRECTION ( 'NONE',  ( 4.275831445896957731E-31, 1.000000000000000000, 1.224646799147352961E-16 ) ) ;
#197 = EDGE_LOOP ( 'NONE', ( #269 ) ) ;
#198 = FACE_OUTER_BOUND ( 'NONE', #172, .T. ) ;
#199 = EDGE_CURVE ( 'NONE', #143, #143, #190, .T. ) ;
#200 = CARTESIAN_POINT ( 'NONE',  ( 1.326762908760390423E-13, 8.998558695971099120E-33, 38.00000000000000000 ) ) ;
#201 = APPROVAL_ROLE ( '' ) ;
#202 = DIRECTION ( 'NONE',  ( 0.0000000000000000000, 1.000000000000000000, 0.0000000000000000000 ) ) ;
#203 = DIRECTION ( 'NONE',  ( 0.0000000000000000000, -1.000000000000000000, 0.0000000000000000000 ) ) ;
#204 = AXIS2_PLACEMENT_3D ( 'NONE', #277, #187, #254 ) ;
#205 = COORDINATED_UNIVERSAL_TIME_OFFSET ( 1, 0, .AHEAD. ) ;
#206 = CARTESIAN_POINT ( 'NONE',  ( -7.285267937800656722E-32, 2.555328009833953751E-33, -2.086583667726133814E-17 ) ) ;
#207 = DIRECTION ( 'NONE',  ( 4.275831445896957731E-31, 1.000000000000000000, 1.224646799147352961E-16 ) ) ;
#208 = AXIS2_PLACEMENT_3D ( 'NONE', #66, #74, #73 ) ;
#209 = PRODUCT_DEFINITION ( 'UNKNOWN', '', #163, #289 ) ;
#210 = FACE_BOUND ( 'NONE', #169, .T. ) ;
#211 = CARTESIAN_POINT ( 'NONE',  ( 3.491481338843134341E-16, 0.3984999999999995213, 0.1000000000000000194 ) ) ;
#212 = EDGE_LOOP ( 'NONE', ( #145 ) ) ;
#213 = EDGE_LOOP ( 'NONE', ( #176 ) ) ;
#214 = AXIS2_PLACEMENT_3D ( 'NONE', #298, #179, #202 ) ;
#215 = CC_DESIGN_SECURITY_CLASSIFICATION ( #112, ( #163 ) ) ;
#216 = DIRECTION ( 'NONE',  ( -4.275831445896957731E-31, -1.000000000000000000, -1.224646799147352961E-16 ) ) ;
#217 = ORIENTED_EDGE ( 'NONE', *, *, #250, .F. ) ;
#218 = DIRECTION ( 'NONE',  ( 3.491481338843133355E-15, -1.224646799147352961E-16, 1.000000000000000000 ) ) ;
#219 = CIRCLE ( 'NONE', #214, 0.3985000000000000209 ) ;
#220 = CIRCLE ( 'NONE', #28, 0.3984999999999995213 ) ;
#221 = ADVANCED_BREP_SHAPE_REPRESENTATION ( '200021', ( #30, #225, #54 ), #195 ) ;
#222 = APPROVAL_ROLE ( '' ) ;
#223 = ORIENTED_EDGE ( 'NONE', *, *, #105, .F. ) ;
#224 = DIRECTION ( 'NONE',  ( -3.491481338843133355E-15, 1.224646799147352961E-16, -1.000000000000000000 ) ) ;
#225 = MANIFOLD_SOLID_BREP ( 'Corps-Déplacer/Copier1[2]', #62 ) ;
#226 = APPROVAL_STATUS ( 'not_yet_approved' ) ;
#227 = CC_DESIGN_PERSON_AND_ORGANIZATION_ASSIGNMENT ( #260, #118, ( #209 ) ) ;
#228 = CARTESIAN_POINT ( 'NONE',  ( 1.396592535537253342E-14, -4.898587196589411843E-16, 4.000000000000000000 ) ) ;
#229 = CONICAL_SURFACE ( 'NONE', #138, 0.3984999999999995213, 0.5235987755982930425 ) ;
#230 = APPROVAL_PERSON_ORGANIZATION ( #19, #272, #222 ) ;
#231 = PERSON_AND_ORGANIZATION_ROLE ( 'creator' ) ;
#232 = DIRECTION ( 'NONE',  ( -3.491481338843133355E-15, 1.224646799147352961E-16, -1.000000000000000000 ) ) ;
#233 = DATE_AND_TIME ( #285, #183 ) ;
#234 = DIRECTION ( 'NONE',  ( 0.0000000000000000000, 1.000000000000000000, 0.0000000000000000000 ) ) ;
#235 = APPROVAL ( #280, 'UNSPECIFIED' ) ;
#236 = EDGE_LOOP ( 'NONE', ( #77 ) ) ;
#237 = DIRECTION ( 'NONE',  ( 0.0000000000000000000, 1.000000000000000000, 0.0000000000000000000 ) ) ;
#238 = ORIENTED_EDGE ( 'NONE', *, *, #263, .F. ) ;
#239 = CONICAL_SURFACE ( 'NONE', #294, 1.499999999999997113, 0.1745329251994259812 ) ;
#240 = ORIENTED_EDGE ( 'NONE', *, *, #127, .F. ) ;
#241 = CIRCLE ( 'NONE', #75, 0.3407649730810377586 ) ;
#242 = ORIENTED_EDGE ( 'NONE', *, *, #293, .T. ) ;
#243 = CARTESIAN_POINT ( 'NONE',  ( 0.0000000000000000000, 0.0000000000000000000, 0.0000000000000000000 ) ) ;
#244 = CC_DESIGN_DATE_AND_TIME_ASSIGNMENT ( #142, #21, ( #112 ) ) ;
#245 = DIRECTION ( 'NONE',  ( 0.0000000000000000000, 1.000000000000000000, 0.0000000000000000000 ) ) ;
#246 = AXIS2_PLACEMENT_3D ( 'NONE', #27, #252, #237 ) ;
#247 = FACE_OUTER_BOUND ( 'NONE', #88, .T. ) ;
#248 = CALENDAR_DATE ( 2021, 29, 11 ) ;
#249 = PLANE ( 'NONE',  #282 ) ;
#250 = EDGE_CURVE ( 'NONE', #43, #43, #241, .T. ) ;
#251 = APPLICATION_PROTOCOL_DEFINITION ( 'international standard', 'config_control_design', 1994, #125 ) ;
#252 = DIRECTION ( 'NONE',  ( -3.491481338843133355E-15, 1.224646799147352961E-16, -1.000000000000000000 ) ) ;
#253 = DATE_AND_TIME ( #95, #131 ) ;
#254 = DIRECTION ( 'NONE',  ( 0.0000000000000000000, 1.000000000000000000, 0.0000000000000000000 ) ) ;
#255 = AXIS2_PLACEMENT_3D ( 'NONE', #243, #224, #18 ) ;
#256 = CIRCLE ( 'NONE', #122, 0.3985000000000000209 ) ;
#257 = PERSON_AND_ORGANIZATION_ROLE ( 'classification_officer' ) ;
#258 = CARTESIAN_POINT ( 'NONE',  ( 2.138211768073756517E-47, 0.3407649730810377586, 0.0000000000000000000 ) ) ;
#259 = ORIENTED_EDGE ( 'NONE', *, *, #293, .F. ) ;
#260 = PERSON_AND_ORGANIZATION ( #100, #156 ) ;
#261 = CARTESIAN_POINT ( 'NONE',  ( 2.914442945444142440E-14, -1.022248976309395884E-15, 8.347296355333845952 ) ) ;
#262 = CARTESIAN_POINT ( 'NONE',  ( 2.793185071074506684E-14, 0.3649999999999989919, 8.000000000000000000 ) ) ;
#263 = EDGE_CURVE ( 'NONE', #45, #45, #80, .T. ) ;
#264 = AXIS2_PLACEMENT_3D ( 'NONE', #206, #160, #68 ) ;
#265 = AXIS2_PLACEMENT_3D ( 'NONE', #261, #114, #1 ) ;
#266 = ADVANCED_FACE ( 'NONE', ( #210, #110 ), #239, .T. ) ;
#267 = EDGE_LOOP ( 'NONE', ( #57 ) ) ;
#268 = ORIENTED_EDGE ( 'NONE', *, *, #165, .T. ) ;
#269 = ORIENTED_EDGE ( 'NONE', *, *, #49, .F. ) ;
#270 = AXIS2_PLACEMENT_3D ( 'NONE', #274, #61, #84 ) ;
#271 = DIRECTION ( 'NONE',  ( 0.0000000000000000000, 1.000000000000000000, 0.0000000000000000000 ) ) ;
#272 = APPROVAL ( #113, 'UNSPECIFIED' ) ;
#273 = CARTESIAN_POINT ( 'NONE',  ( 1.326762908760390423E-13, -4.653657836759941152E-15, 38.00000000000000000 ) ) ;
#274 = CARTESIAN_POINT ( 'NONE',  ( 0.0000000000000000000, 0.0000000000000000000, 0.0000000000000000000 ) ) ;
#275 = DIRECTION ( 'NONE',  ( 1.000000000000000000, 0.0000000000000000000, 0.0000000000000000000 ) ) ;
#276 = CARTESIAN_POINT ( 'NONE',  ( 0.0000000000000000000, 0.0000000000000000000, 0.0000000000000000000 ) ) ;
#277 = CARTESIAN_POINT ( 'NONE',  ( 5.101711399985324237E-14, -1.789439475634067699E-15, 14.61188219231818763 ) ) ;
#278 = DATE_AND_TIME ( #87, #15 ) ;
#279 = PLANE ( 'NONE',  #264 ) ;
#280 = APPROVAL_STATUS ( 'not_yet_approved' ) ;
#281 = FACE_OUTER_BOUND ( 'NONE', #197, .T. ) ;
#282 = AXIS2_PLACEMENT_3D ( 'NONE', #33, #126, #216 ) ;
#283 = AXIS2_PLACEMENT_3D ( 'NONE', #141, #168, #98 ) ;
#284 = ORIENTED_EDGE ( 'NONE', *, *, #105, .T. ) ;
#285 = CALENDAR_DATE ( 2021, 29, 11 ) ;
#286 = DIRECTION ( 'NONE',  ( -3.491481338843133355E-15, 1.224646799147352961E-16, -1.000000000000000000 ) ) ;
#287 = DIRECTION ( 'NONE',  ( 4.832948417533847419E-31, 1.000000000000000000, 1.360354043269141472E-16 ) ) ;
#288 = LOCAL_TIME ( 15, 49, 16.00000000000000000, #65 ) ;
#289 = DESIGN_CONTEXT ( 'detailed design', #125, 'design' ) ;
#290 = EDGE_LOOP ( 'NONE', ( #223 ) ) ;
#291 = FACE_OUTER_BOUND ( 'NONE', #99, .T. ) ;
#292 = FACE_OUTER_BOUND ( 'NONE', #267, .T. ) ;
#293 = EDGE_CURVE ( 'NONE', #185, #185, #220, .T. ) ;
#294 = AXIS2_PLACEMENT_3D ( 'NONE', #50, #148, #203 ) ;
#295 = CYLINDRICAL_SURFACE ( 'NONE', #270, 1.500000000000000222 ) ;
#296 = DIRECTION ( 'NONE',  ( -3.491481338843133355E-15, 1.224646799147352961E-16, -1.000000000000000000 ) ) ;
#297 = DATE_AND_TIME ( #248, #11 ) ;
#298 = CARTESIAN_POINT ( 'NONE',  ( 1.396592535537253342E-14, -4.898587196589411843E-16, 4.000000000000000000 ) ) ;
#299 = APPROVAL_DATE_TIME ( #278, #25 ) ;
#300 = APPLICATION_CONTEXT ( 'configuration controlled 3d designs of mechanical parts and assemblies' ) ;
#301 = VERTEX_POINT ( 'NONE', #97 ) ;
#302 = PERSON_AND_ORGANIZATION_ROLE ( 'design_owner' ) ;
#303 = FACE_OUTER_BOUND ( 'NONE', #14, .T. ) ;
ENDSEC;
END-ISO-10303-21;
