ISO-10303-21;
HEADER;
FILE_DESCRIPTION (( 'STEP AP203' ),
    '1' );
FILE_NAME ('200020.step',
    '2021-11-29T14:49:16',
    ( '' ),
    ( '' ),
    'SwSTEP 2.0',
    'SolidWorks 2019',
    '' );
FILE_SCHEMA (( 'CONFIG_CONTROL_DESIGN' ));
ENDSEC;

DATA;
#1 = CARTESIAN_POINT ( 'NONE',  ( 0.0000000000000000000, 0.0000000000000000000, 0.0000000000000000000 ) ) ;
#2 = PERSON ( 'UNSPECIFIED', 'UNSPECIFIED', 'UNSPECIFIED', ('UNSPECIFIED'), ('UNSPECIFIED'), ('UNSPECIFIED') ) ;
#3 = AXIS2_PLACEMENT_3D ( 'NONE', #156, #19, #255 ) ;
#4 = SECURITY_CLASSIFICATION_LEVEL ( 'unclassified' ) ;
#5 = EDGE_CURVE ( 'NONE', #23, #23, #55, .T. ) ;
#6 = EDGE_LOOP ( 'NONE', ( #170 ) ) ;
#7 = AXIS2_PLACEMENT_3D ( 'NONE', #208, #93, #140 ) ;
#8 = APPROVAL_STATUS ( 'not_yet_approved' ) ;
#9 = DATE_AND_TIME ( #103, #149 ) ;
#10 = EDGE_CURVE ( 'NONE', #194, #194, #171, .T. ) ;
#11 = DIRECTION ( 'NONE',  ( 0.0000000000000000000, 1.000000000000000000, 0.0000000000000000000 ) ) ;
#12 = PERSON_AND_ORGANIZATION ( #2, #179 ) ;
#13 = CIRCLE ( 'NONE', #3, 0.3549999999999994826 ) ;
#14 = AXIS2_PLACEMENT_3D ( 'NONE', #1, #99, #236 ) ;
#15 = PLANE ( 'NONE',  #277 ) ;
#16 = DATE_AND_TIME ( #274, #60 ) ;
#17 = FACE_BOUND ( 'NONE', #30, .T. ) ;
#18 = FACE_OUTER_BOUND ( 'NONE', #219, .T. ) ;
#19 = DIRECTION ( 'NONE',  ( -3.491481338843133355E-15, 1.224646799147352961E-16, -1.000000000000000000 ) ) ;
#20 = DIRECTION ( 'NONE',  ( 3.491481338843133355E-15, -1.224646799147352961E-16, 1.000000000000000000 ) ) ;
#21 = DIRECTION ( 'NONE',  ( -3.491481338843133355E-15, 1.224646799147352961E-16, -1.000000000000000000 ) ) ;
#22 = ADVANCED_FACE ( 'NONE', ( #50 ), #15, .F. ) ;
#23 = VERTEX_POINT ( 'NONE', #123 ) ;
#24 = AXIS2_PLACEMENT_3D ( 'NONE', #158, #232, #181 ) ;
#25 =( GEOMETRIC_REPRESENTATION_CONTEXT ( 3 ) GLOBAL_UNCERTAINTY_ASSIGNED_CONTEXT ( ( #88 ) ) GLOBAL_UNIT_ASSIGNED_CONTEXT ( ( #57, #100, #260 ) ) REPRESENTATION_CONTEXT ( 'NONE', 'WORKASPACE' ) );
#26 = CYLINDRICAL_SURFACE ( 'NONE', #80, 0.3884999999999997344 ) ;
#27 = MANIFOLD_SOLID_BREP ( 'Corps-Déplacer/Copier1[2]', #178 ) ;
#28 = CARTESIAN_POINT ( 'NONE',  ( 1.316288464743861212E-13, 1.499999999999998668, 37.69999999999999574 ) ) ;
#29 = CC_DESIGN_PERSON_AND_ORGANIZATION_ASSIGNMENT ( #217, #155, ( #56 ) ) ;
#30 = EDGE_LOOP ( 'NONE', ( #43 ) ) ;
#31 = AXIS2_PLACEMENT_3D ( 'NONE', #71, #202, #225 ) ;
#32 = APPROVAL_PERSON_ORGANIZATION ( #290, #92, #137 ) ;
#33 = EDGE_LOOP ( 'NONE', ( #245 ) ) ;
#34 = EDGE_LOOP ( 'NONE', ( #147 ) ) ;
#35 = CC_DESIGN_PERSON_AND_ORGANIZATION_ASSIGNMENT ( #12, #168, ( #153 ) ) ;
#36 = EDGE_LOOP ( 'NONE', ( #240 ) ) ;
#37 = DIRECTION ( 'NONE',  ( 0.0000000000000000000, 0.0000000000000000000, 1.000000000000000000 ) ) ;
#38 = CIRCLE ( 'NONE', #101, 1.499999999999997113 ) ;
#39 = AXIS2_PLACEMENT_3D ( 'NONE', #252, #114, #91 ) ;
#40 = COORDINATED_UNIVERSAL_TIME_OFFSET ( 1, 0, .AHEAD. ) ;
#41 = CARTESIAN_POINT ( 'NONE',  ( 2.914442945444142440E-14, -1.022248976309395884E-15, 8.347296355333845952 ) ) ;
#42 = DATE_AND_TIME ( #287, #173 ) ;
#43 = ORIENTED_EDGE ( 'NONE', *, *, #243, .T. ) ;
#44 = DATE_AND_TIME ( #201, #285 ) ;
#45 = AXIS2_PLACEMENT_3D ( 'NONE', #41, #258, #94 ) ;
#46 = CC_DESIGN_APPROVAL ( #92, ( #153 ) ) ;
#47 = DIRECTION ( 'NONE',  ( 3.491481338843133355E-15, -1.224646799147352961E-16, 1.000000000000000000 ) ) ;
#48 = FACE_OUTER_BOUND ( 'NONE', #177, .T. ) ;
#49 = EDGE_CURVE ( 'NONE', #283, #283, #222, .T. ) ;
#50 = FACE_OUTER_BOUND ( 'NONE', #172, .T. ) ;
#51 = PRODUCT_DEFINITION_SHAPE ( 'NONE', 'NONE',  #153 ) ;
#52 = FACE_OUTER_BOUND ( 'NONE', #197, .T. ) ;
#53 = CYLINDRICAL_SURFACE ( 'NONE', #14, 1.500000000000000222 ) ;
#54 = CARTESIAN_POINT ( 'NONE',  ( 1.396592535537253342E-14, 2.913283377820649700E-33, 4.000000000000000000 ) ) ;
#55 = CIRCLE ( 'NONE', #24, 0.3885000000000000120 ) ;
#56 = PRODUCT_DEFINITION_FORMATION_WITH_SPECIFIED_SOURCE ( 'ANY', '', #188, .NOT_KNOWN. ) ;
#57 =( LENGTH_UNIT ( ) NAMED_UNIT ( * ) SI_UNIT ( .MILLI., .METRE. ) );
#58 = APPROVAL_DATE_TIME ( #270, #254 ) ;
#59 = EDGE_LOOP ( 'NONE', ( #83 ) ) ;
#60 = LOCAL_TIME ( 15, 49, 15.00000000000000000, #182 ) ;
#61 = ADVANCED_FACE ( 'NONE', ( #209 ), #187, .F. ) ;
#62 = ORIENTED_EDGE ( 'NONE', *, *, #49, .F. ) ;
#63 = APPLICATION_PROTOCOL_DEFINITION ( 'international standard', 'config_control_design', 1994, #86 ) ;
#64 = LOCAL_TIME ( 15, 49, 15.00000000000000000, #228 ) ;
#65 = CARTESIAN_POINT ( 'NONE',  ( 5.121512574625840472E-14, -1.796384792761524882E-15, 14.66859501051436432 ) ) ;
#66 = CC_DESIGN_PERSON_AND_ORGANIZATION_ASSIGNMENT ( #68, #199, ( #213 ) ) ;
#67 = FACE_BOUND ( 'NONE', #36, .T. ) ;
#68 = PERSON_AND_ORGANIZATION ( #2, #179 ) ;
#69 = DIRECTION ( 'NONE',  ( 3.491481338843133355E-15, -1.224646799147352961E-16, 1.000000000000000000 ) ) ;
#70 = CARTESIAN_POINT ( 'NONE',  ( 3.491481338843132369E-16, -1.224646799147352498E-17, 0.09999999999999996392 ) ) ;
#71 = CARTESIAN_POINT ( 'NONE',  ( 2.793185071074506684E-14, -8.673617379884035472E-16, 8.000000000000000000 ) ) ;
#72 = CARTESIAN_POINT ( 'NONE',  ( 1.326762908760390423E-13, 1.199999999999998845, 38.00000000000000000 ) ) ;
#73 = AXIS2_PLACEMENT_3D ( 'NONE', #298, #250, #11 ) ;
#74 = CARTESIAN_POINT ( 'NONE',  ( 0.0000000000000000000, 0.0000000000000000000, 0.0000000000000000000 ) ) ;
#75 = DIRECTION ( 'NONE',  ( 4.275831445896957731E-31, 1.000000000000000000, 1.224646799147352961E-16 ) ) ;
#76 = FACE_OUTER_BOUND ( 'NONE', #244, .T. ) ;
#77 = PLANE ( 'NONE',  #191 ) ;
#78 = ADVANCED_FACE ( 'NONE', ( #18, #17 ), #79, .T. ) ;
#79 = CONICAL_SURFACE ( 'NONE', #246, 1.200000000000003286, 0.7853981633974453924 ) ;
#80 = AXIS2_PLACEMENT_3D ( 'NONE', #74, #21, #75 ) ;
#81 = MECHANICAL_CONTEXT ( 'NONE', #259, 'mechanical' ) ;
#82 = COORDINATED_UNIVERSAL_TIME_OFFSET ( 1, 0, .AHEAD. ) ;
#83 = ORIENTED_EDGE ( 'NONE', *, *, #84, .F. ) ;
#84 = EDGE_CURVE ( 'NONE', #165, #165, #38, .T. ) ;
#85 = AXIS2_PLACEMENT_3D ( 'NONE', #206, #116, #292 ) ;
#86 = APPLICATION_CONTEXT ( 'configuration controlled 3d designs of mechanical parts and assemblies' ) ;
#87 = ORIENTED_EDGE ( 'NONE', *, *, #133, .T. ) ;
#88 = UNCERTAINTY_MEASURE_WITH_UNIT (LENGTH_MEASURE( 1.000000000000000082E-05 ), #57, 'distance_accuracy_value', 'NONE');
#89 = COORDINATED_UNIVERSAL_TIME_OFFSET ( 1, 0, .AHEAD. ) ;
#90 = CARTESIAN_POINT ( 'NONE',  ( 3.491481338843132369E-16, -1.224646799147352498E-17, 0.09999999999999996392 ) ) ;
#91 = DIRECTION ( 'NONE',  ( 0.0000000000000000000, 1.000000000000000000, 0.0000000000000000000 ) ) ;
#92 = APPROVAL ( #110, 'UNSPECIFIED' ) ;
#93 = DIRECTION ( 'NONE',  ( 3.491481338843133355E-15, -1.224646799147352961E-16, 1.000000000000000000 ) ) ;
#94 = DIRECTION ( 'NONE',  ( 0.0000000000000000000, 1.000000000000000000, 0.0000000000000000000 ) ) ;
#95 = DIRECTION ( 'NONE',  ( 3.491481338843133355E-15, -1.224646799147352961E-16, 1.000000000000000000 ) ) ;
#96 = CARTESIAN_POINT ( 'NONE',  ( 2.793185071074506684E-14, -9.797174393178823685E-16, 8.000000000000000000 ) ) ;
#97 = FACE_OUTER_BOUND ( 'NONE', #271, .T. ) ;
#98 = CARTESIAN_POINT ( 'NONE',  ( 1.326762908760390423E-13, 8.998558695971099120E-33, 38.00000000000000000 ) ) ;
#99 = DIRECTION ( 'NONE',  ( -3.491481338843133355E-15, 1.224646799147352961E-16, -1.000000000000000000 ) ) ;
#100 =( NAMED_UNIT ( * ) PLANE_ANGLE_UNIT ( ) SI_UNIT ( $, .RADIAN. ) );
#101 = AXIS2_PLACEMENT_3D ( 'NONE', #65, #135, #119 ) ;
#102 = CIRCLE ( 'NONE', #113, 0.3549999999999999822 ) ;
#103 = CALENDAR_DATE ( 2021, 29, 11 ) ;
#104 = ORIENTED_EDGE ( 'NONE', *, *, #211, .T. ) ;
#105 = ORIENTED_EDGE ( 'NONE', *, *, #133, .F. ) ;
#106 = ORIENTED_EDGE ( 'NONE', *, *, #269, .F. ) ;
#107 = PERSON_AND_ORGANIZATION ( #2, #179 ) ;
#108 = ADVANCED_FACE ( 'NONE', ( #117, #152 ), #241, .F. ) ;
#109 = ORIENTED_EDGE ( 'NONE', *, *, #144, .T. ) ;
#110 = APPROVAL_STATUS ( 'not_yet_approved' ) ;
#111 = CARTESIAN_POINT ( 'NONE',  ( 1.326762908760390423E-13, -4.653657836759941152E-15, 38.00000000000000000 ) ) ;
#112 = PERSON_AND_ORGANIZATION ( #2, #179 ) ;
#113 = AXIS2_PLACEMENT_3D ( 'NONE', #96, #212, #143 ) ;
#114 = DIRECTION ( 'NONE',  ( -3.491481338843133355E-15, 1.224646799147352961E-16, -1.000000000000000000 ) ) ;
#115 = ADVANCED_FACE ( 'NONE', ( #159, #136 ), #203, .T. ) ;
#116 = DIRECTION ( 'NONE',  ( -3.491481338843133355E-15, 1.224646799147352961E-16, -1.000000000000000000 ) ) ;
#117 = FACE_OUTER_BOUND ( 'NONE', #127, .T. ) ;
#118 = CC_DESIGN_SECURITY_CLASSIFICATION ( #213, ( #56 ) ) ;
#119 = DIRECTION ( 'NONE',  ( 0.0000000000000000000, 1.000000000000000000, 0.0000000000000000000 ) ) ;
#120 = CC_DESIGN_PERSON_AND_ORGANIZATION_ASSIGNMENT ( #107, #126, ( #56 ) ) ;
#121 = PLANE ( 'NONE',  #132 ) ;
#122 = DIRECTION ( 'NONE',  ( 4.275831445896957731E-31, 1.000000000000000000, 1.224646799147352961E-16 ) ) ;
#123 = CARTESIAN_POINT ( 'NONE',  ( 1.396592535537253342E-14, 0.3884999999999995124, 4.000000000000000000 ) ) ;
#124 = VERTEX_POINT ( 'NONE', #215 ) ;
#125 = VERTEX_POINT ( 'NONE', #28 ) ;
#126 = PERSON_AND_ORGANIZATION_ROLE ( 'creator' ) ;
#127 = EDGE_LOOP ( 'NONE', ( #106 ) ) ;
#128 = EDGE_LOOP ( 'NONE', ( #104 ) ) ;
#129 = ORIENTED_EDGE ( 'NONE', *, *, #163, .F. ) ;
#130 = EDGE_LOOP ( 'NONE', ( #175 ) ) ;
#131 = AXIS2_PLACEMENT_3D ( 'NONE', #70, #141, #139 ) ;
#132 = AXIS2_PLACEMENT_3D ( 'NONE', #54, #20, #193 ) ;
#133 = EDGE_CURVE ( 'NONE', #166, #166, #13, .T. ) ;
#134 = APPLICATION_PROTOCOL_DEFINITION ( 'international standard', 'config_control_design', 1994, #259 ) ;
#135 = DIRECTION ( 'NONE',  ( -3.491481338843133355E-15, 1.224646799147352961E-16, -1.000000000000000000 ) ) ;
#136 = FACE_BOUND ( 'NONE', #218, .T. ) ;
#137 = APPROVAL_ROLE ( '' ) ;
#138 = AXIS2_PLACEMENT_3D ( 'NONE', #276, #184, #295 ) ;
#139 = DIRECTION ( 'NONE',  ( 3.718011475651039228E-31, 1.000000000000000000, 1.395369591358437270E-16 ) ) ;
#140 = DIRECTION ( 'NONE',  ( 0.0000000000000000000, -1.000000000000000000, 0.0000000000000000000 ) ) ;
#141 = DIRECTION ( 'NONE',  ( -3.491481338843133355E-15, 1.224646799147352961E-16, -1.000000000000000000 ) ) ;
#142 = FACE_OUTER_BOUND ( 'NONE', #221, .T. ) ;
#143 = DIRECTION ( 'NONE',  ( 0.0000000000000000000, 1.000000000000000000, 0.0000000000000000000 ) ) ;
#144 = EDGE_CURVE ( 'NONE', #234, #234, #288, .T. ) ;
#145 = VERTEX_POINT ( 'NONE', #299 ) ;
#146 = DIRECTION ( 'NONE',  ( -3.491481338843133355E-15, 1.224646799147352961E-16, -1.000000000000000000 ) ) ;
#147 = ORIENTED_EDGE ( 'NONE', *, *, #10, .T. ) ;
#148 = ORIENTED_EDGE ( 'NONE', *, *, #49, .T. ) ;
#149 = LOCAL_TIME ( 15, 49, 15.00000000000000000, #82 ) ;
#150 = DESIGN_CONTEXT ( 'detailed design', #86, 'design' ) ;
#151 = DATE_TIME_ROLE ( 'classification_date' ) ;
#152 = FACE_OUTER_BOUND ( 'NONE', #34, .T. ) ;
#153 = PRODUCT_DEFINITION ( 'UNKNOWN', '', #56, #150 ) ;
#154 = DIRECTION ( 'NONE',  ( 0.0000000000000000000, 1.000000000000000000, 0.0000000000000000000 ) ) ;
#155 = PERSON_AND_ORGANIZATION_ROLE ( 'design_supplier' ) ;
#156 = CARTESIAN_POINT ( 'NONE',  ( 1.416851402830312905E-14, -4.969645737583982706E-16, 4.058023702053559667 ) ) ;
#157 = CLOSED_SHELL ( 'NONE', ( #61, #115, #216, #108, #190, #302, #78, #238 ) ) ;
#158 = CARTESIAN_POINT ( 'NONE',  ( 1.396592535537253342E-14, -4.898587196589411843E-16, 4.000000000000000000 ) ) ;
#159 = FACE_OUTER_BOUND ( 'NONE', #268, .T. ) ;
#160 = CC_DESIGN_DATE_AND_TIME_ASSIGNMENT ( #9, #169, ( #153 ) ) ;
#161 = AXIS2_PLACEMENT_3D ( 'NONE', #253, #37, #286 ) ;
#162 = CARTESIAN_POINT ( 'NONE',  ( 0.0000000000000000000, 0.0000000000000000000, 0.0000000000000000000 ) ) ;
#163 = EDGE_CURVE ( 'NONE', #125, #125, #167, .T. ) ;
#164 = CYLINDRICAL_SURFACE ( 'NONE', #301, 0.3549999999999997602 ) ;
#165 = VERTEX_POINT ( 'NONE', #284 ) ;
#166 = VERTEX_POINT ( 'NONE', #303 ) ;
#167 = CIRCLE ( 'NONE', #39, 1.500000000000003331 ) ;
#168 = PERSON_AND_ORGANIZATION_ROLE ( 'creator' ) ;
#169 = DATE_TIME_ROLE ( 'creation_date' ) ;
#170 = ORIENTED_EDGE ( 'NONE', *, *, #5, .T. ) ;
#171 = CIRCLE ( 'NONE', #45, 0.3853844939755814436 ) ;
#172 = EDGE_LOOP ( 'NONE', ( #109 ) ) ;
#173 = LOCAL_TIME ( 15, 49, 15.00000000000000000, #89 ) ;
#174 = ADVANCED_FACE ( 'NONE', ( #207, #48 ), #242, .T. ) ;
#175 = ORIENTED_EDGE ( 'NONE', *, *, #243, .F. ) ;
#176 = CALENDAR_DATE ( 2021, 29, 11 ) ;
#177 = EDGE_LOOP ( 'NONE', ( #148 ) ) ;
#178 = CLOSED_SHELL ( 'NONE', ( #22, #174, #279, #224 ) ) ;
#179 = ORGANIZATION ( 'UNSPECIFIED', 'UNSPECIFIED', '' ) ;
#180 = APPROVAL_ROLE ( '' ) ;
#181 = DIRECTION ( 'NONE',  ( 0.0000000000000000000, 1.000000000000000000, 0.0000000000000000000 ) ) ;
#182 = COORDINATED_UNIVERSAL_TIME_OFFSET ( 1, 0, .AHEAD. ) ;
#183 = EDGE_LOOP ( 'NONE', ( #247 ) ) ;
#184 = DIRECTION ( 'NONE',  ( -3.491481338843133355E-15, 1.224646799147352961E-16, -1.000000000000000000 ) ) ;
#185 = CIRCLE ( 'NONE', #138, 0.3885000000000000120 ) ;
#186 = DIRECTION ( 'NONE',  ( -4.275831445896957731E-31, -1.000000000000000000, -1.224646799147352961E-16 ) ) ;
#187 = PLANE ( 'NONE',  #296 ) ;
#188 = PRODUCT ( '200020', '200020', '', ( #81 ) ) ;
#189 = FACE_OUTER_BOUND ( 'NONE', #59, .T. ) ;
#190 = ADVANCED_FACE ( 'NONE', ( #67, #294 ), #227, .T. ) ;
#191 = AXIS2_PLACEMENT_3D ( 'NONE', #98, #300, #192 ) ;
#192 = DIRECTION ( 'NONE',  ( 4.275831445896957731E-31, 1.000000000000000000, 1.224646799147352961E-16 ) ) ;
#193 = DIRECTION ( 'NONE',  ( -4.275831445896957731E-31, -1.000000000000000000, -1.224646799147352961E-16 ) ) ;
#194 = VERTEX_POINT ( 'NONE', #214 ) ;
#195 = APPROVAL_ROLE ( '' ) ;
#196 = AXIS2_PLACEMENT_3D ( 'NONE', #90, #47, #273 ) ;
#197 = EDGE_LOOP ( 'NONE', ( #275 ) ) ;
#198 = CC_DESIGN_DATE_AND_TIME_ASSIGNMENT ( #16, #151, ( #213 ) ) ;
#199 = PERSON_AND_ORGANIZATION_ROLE ( 'classification_officer' ) ;
#200 = EDGE_LOOP ( 'NONE', ( #62 ) ) ;
#201 = CALENDAR_DATE ( 2021, 29, 11 ) ;
#202 = DIRECTION ( 'NONE',  ( -3.491481338843133355E-15, 1.224646799147352961E-16, -1.000000000000000000 ) ) ;
#203 = CONICAL_SURFACE ( 'NONE', #73, 0.3549999999999994826, 0.5235987755982914882 ) ;
#204 = CC_DESIGN_APPROVAL ( #282, ( #213 ) ) ;
#205 = SHAPE_DEFINITION_REPRESENTATION ( #51, #267 ) ;
#206 = CARTESIAN_POINT ( 'NONE',  ( -1.414295273101162354E-31, 4.960680041401723382E-33, -4.050702655537533194E-17 ) ) ;
#207 = FACE_BOUND ( 'NONE', #33, .T. ) ;
#208 = CARTESIAN_POINT ( 'NONE',  ( 5.121512574625840472E-14, -1.796384792761524882E-15, 14.66859501051436432 ) ) ;
#209 = FACE_OUTER_BOUND ( 'NONE', #128, .T. ) ;
#210 = FACE_OUTER_BOUND ( 'NONE', #130, .T. ) ;
#211 = EDGE_CURVE ( 'NONE', #145, #145, #185, .T. ) ;
#212 = DIRECTION ( 'NONE',  ( -3.491481338843133355E-15, 1.224646799147352961E-16, -1.000000000000000000 ) ) ;
#213 = SECURITY_CLASSIFICATION ( '', '', #4 ) ;
#214 = CARTESIAN_POINT ( 'NONE',  ( 2.914442945444142440E-14, 0.3853844939755803889, 8.347296355333845952 ) ) ;
#215 = CARTESIAN_POINT ( 'NONE',  ( 2.793185071074506684E-14, 0.3549999999999989830, 8.000000000000000000 ) ) ;
#216 = ADVANCED_FACE ( 'NONE', ( #76, #97 ), #164, .T. ) ;
#217 = PERSON_AND_ORGANIZATION ( #2, #179 ) ;
#218 = EDGE_LOOP ( 'NONE', ( #87 ) ) ;
#219 = EDGE_LOOP ( 'NONE', ( #129 ) ) ;
#220 = CC_DESIGN_PERSON_AND_ORGANIZATION_ASSIGNMENT ( #272, #239, ( #188 ) ) ;
#221 = EDGE_LOOP ( 'NONE', ( #229 ) ) ;
#222 = CIRCLE ( 'NONE', #131, 0.3884999999999995124 ) ;
#223 = APPROVAL_PERSON_ORGANIZATION ( #264, #254, #180 ) ;
#224 = ADVANCED_FACE ( 'NONE', ( #52 ), #121, .T. ) ;
#225 = DIRECTION ( 'NONE',  ( 4.275831445896957731E-31, 1.000000000000000000, 1.224646799147352961E-16 ) ) ;
#226 = DIRECTION ( 'NONE',  ( -4.275831445896957731E-31, -1.000000000000000000, -1.224646799147352961E-16 ) ) ;
#227 = CONICAL_SURFACE ( 'NONE', #7, 1.499999999999997113, 0.1745329251994260367 ) ;
#228 = COORDINATED_UNIVERSAL_TIME_OFFSET ( 1, 0, .AHEAD. ) ;
#229 = ORIENTED_EDGE ( 'NONE', *, *, #163, .T. ) ;
#230 = CARTESIAN_POINT ( 'NONE',  ( -7.071476365505811770E-32, 2.480340020700861691E-33, -2.025351327768766597E-17 ) ) ;
#231 = MANIFOLD_SOLID_BREP ( 'Corps-Déplacer/Copier1[1]', #157 ) ;
#232 = DIRECTION ( 'NONE',  ( -3.491481338843133355E-15, 1.224646799147352961E-16, -1.000000000000000000 ) ) ;
#233 = AXIS2_PLACEMENT_3D ( 'NONE', #261, #280, #281 ) ;
#234 = VERTEX_POINT ( 'NONE', #263 ) ;
#235 = FACE_OUTER_BOUND ( 'NONE', #200, .T. ) ;
#236 = DIRECTION ( 'NONE',  ( 4.275831445896957731E-31, 1.000000000000000000, 1.224646799147353207E-16 ) ) ;
#237 = CARTESIAN_POINT ( 'NONE',  ( 3.491481338843133848E-16, 0.3884999999999995124, 0.1000000000000000194 ) ) ;
#238 = ADVANCED_FACE ( 'NONE', ( #210 ), #77, .F. ) ;
#239 = PERSON_AND_ORGANIZATION_ROLE ( 'design_owner' ) ;
#240 = ORIENTED_EDGE ( 'NONE', *, *, #10, .F. ) ;
#241 = TOROIDAL_SURFACE ( 'NONE', #31, 2.354999999999999982, 2.000000000000000000 ) ;
#242 = CONICAL_SURFACE ( 'NONE', #196, 0.3884999999999995124, 0.5235987755982921543 ) ;
#243 = EDGE_CURVE ( 'NONE', #278, #278, #248, .T. ) ;
#244 = EDGE_LOOP ( 'NONE', ( #105 ) ) ;
#245 = ORIENTED_EDGE ( 'NONE', *, *, #144, .F. ) ;
#246 = AXIS2_PLACEMENT_3D ( 'NONE', #111, #257, #154 ) ;
#247 = ORIENTED_EDGE ( 'NONE', *, *, #84, .T. ) ;
#248 = CIRCLE ( 'NONE', #233, 1.200000000000003286 ) ;
#249 = APPROVAL_STATUS ( 'not_yet_approved' ) ;
#250 = DIRECTION ( 'NONE',  ( -3.491481338843133355E-15, 1.224646799147352961E-16, -1.000000000000000000 ) ) ;
#251 = APPROVAL_DATE_TIME ( #42, #92 ) ;
#252 = CARTESIAN_POINT ( 'NONE',  ( 1.316288464743861212E-13, -4.616918432785520292E-15, 37.69999999999999574 ) ) ;
#253 = CARTESIAN_POINT ( 'NONE',  ( 0.0000000000000000000, 0.0000000000000000000, 0.0000000000000000000 ) ) ;
#254 = APPROVAL ( #8, 'UNSPECIFIED' ) ;
#255 = DIRECTION ( 'NONE',  ( 0.0000000000000000000, 1.000000000000000000, 0.0000000000000000000 ) ) ;
#256 = APPROVAL_PERSON_ORGANIZATION ( #112, #282, #195 ) ;
#257 = DIRECTION ( 'NONE',  ( -3.491481338843133355E-15, 1.224646799147352961E-16, -1.000000000000000000 ) ) ;
#258 = DIRECTION ( 'NONE',  ( -3.491481338843133355E-15, 1.224646799147352961E-16, -1.000000000000000000 ) ) ;
#259 = APPLICATION_CONTEXT ( 'configuration controlled 3d designs of mechanical parts and assemblies' ) ;
#260 =( NAMED_UNIT ( * ) SI_UNIT ( $, .STERADIAN. ) SOLID_ANGLE_UNIT ( ) );
#261 = CARTESIAN_POINT ( 'NONE',  ( 1.326762908760390423E-13, -4.653657836759941152E-15, 38.00000000000000000 ) ) ;
#262 = FACE_OUTER_BOUND ( 'NONE', #6, .T. ) ;
#263 = CARTESIAN_POINT ( 'NONE',  ( 0.0000000000000000000, 0.3307649730810378053, 0.0000000000000000000 ) ) ;
#264 = PERSON_AND_ORGANIZATION ( #2, #179 ) ;
#265 = PRODUCT_RELATED_PRODUCT_CATEGORY ( 'detail', '', ( #188 ) ) ;
#266 = ORIENTED_EDGE ( 'NONE', *, *, #211, .F. ) ;
#267 = ADVANCED_BREP_SHAPE_REPRESENTATION ( '200020', ( #231, #27, #161 ), #25 ) ;
#268 = EDGE_LOOP ( 'NONE', ( #266 ) ) ;
#269 = EDGE_CURVE ( 'NONE', #124, #124, #102, .T. ) ;
#270 = DATE_AND_TIME ( #176, #64 ) ;
#271 = EDGE_LOOP ( 'NONE', ( #289 ) ) ;
#272 = PERSON_AND_ORGANIZATION ( #2, #179 ) ;
#273 = DIRECTION ( 'NONE',  ( -3.718011475651039228E-31, -1.000000000000000000, -1.395369591358437270E-16 ) ) ;
#274 = CALENDAR_DATE ( 2021, 29, 11 ) ;
#275 = ORIENTED_EDGE ( 'NONE', *, *, #5, .F. ) ;
#276 = CARTESIAN_POINT ( 'NONE',  ( 1.396592535537253342E-14, -4.898587196589411843E-16, 4.000000000000000000 ) ) ;
#277 = AXIS2_PLACEMENT_3D ( 'NONE', #230, #69, #226 ) ;
#278 = VERTEX_POINT ( 'NONE', #72 ) ;
#279 = ADVANCED_FACE ( 'NONE', ( #235, #262 ), #26, .T. ) ;
#280 = DIRECTION ( 'NONE',  ( -3.491481338843133355E-15, 1.224646799147352961E-16, -1.000000000000000000 ) ) ;
#281 = DIRECTION ( 'NONE',  ( 0.0000000000000000000, 1.000000000000000000, 0.0000000000000000000 ) ) ;
#282 = APPROVAL ( #249, 'UNSPECIFIED' ) ;
#283 = VERTEX_POINT ( 'NONE', #237 ) ;
#284 = CARTESIAN_POINT ( 'NONE',  ( 5.121512574625840472E-14, 1.499999999999995559, 14.66859501051436432 ) ) ;
#285 = LOCAL_TIME ( 15, 49, 15.00000000000000000, #40 ) ;
#286 = DIRECTION ( 'NONE',  ( 1.000000000000000000, 0.0000000000000000000, 0.0000000000000000000 ) ) ;
#287 = CALENDAR_DATE ( 2021, 29, 11 ) ;
#288 = CIRCLE ( 'NONE', #85, 0.3307649730810378053 ) ;
#289 = ORIENTED_EDGE ( 'NONE', *, *, #269, .T. ) ;
#290 = PERSON_AND_ORGANIZATION ( #2, #179 ) ;
#291 = APPROVAL_DATE_TIME ( #44, #282 ) ;
#292 = DIRECTION ( 'NONE',  ( 4.275831445896958607E-31, 1.000000000000000000, 1.224646799147352961E-16 ) ) ;
#293 = CARTESIAN_POINT ( 'NONE',  ( 1.396592535537253342E-14, 2.913283377820649700E-33, 4.000000000000000000 ) ) ;
#294 = FACE_OUTER_BOUND ( 'NONE', #183, .T. ) ;
#295 = DIRECTION ( 'NONE',  ( 0.0000000000000000000, 1.000000000000000000, 0.0000000000000000000 ) ) ;
#296 = AXIS2_PLACEMENT_3D ( 'NONE', #293, #95, #186 ) ;
#297 = CC_DESIGN_APPROVAL ( #254, ( #56 ) ) ;
#298 = CARTESIAN_POINT ( 'NONE',  ( 1.416851402830312905E-14, -4.969645737583982706E-16, 4.058023702053559667 ) ) ;
#299 = CARTESIAN_POINT ( 'NONE',  ( 1.396592535537253342E-14, 0.3884999999999995124, 4.000000000000000000 ) ) ;
#300 = DIRECTION ( 'NONE',  ( -3.491481338843133355E-15, 1.224646799147352961E-16, -1.000000000000000000 ) ) ;
#301 = AXIS2_PLACEMENT_3D ( 'NONE', #162, #146, #122 ) ;
#302 = ADVANCED_FACE ( 'NONE', ( #189, #142 ), #53, .T. ) ;
#303 = CARTESIAN_POINT ( 'NONE',  ( 1.416851402830312905E-14, 0.3549999999999989830, 4.058023702053559667 ) ) ;
ENDSEC;
END-ISO-10303-21;
