ISO-10303-21;
HEADER;
FILE_DESCRIPTION (( 'STEP AP203' ),
    '1' );
FILE_NAME ('200019.step',
    '2021-11-29T14:49:15',
    ( '' ),
    ( '' ),
    'SwSTEP 2.0',
    'SolidWorks 2019',
    '' );
FILE_SCHEMA (( 'CONFIG_CONTROL_DESIGN' ));
ENDSEC;

DATA;
#1 = DIRECTION ( 'NONE',  ( 0.0000000000000000000, 1.000000000000000000, 0.0000000000000000000 ) ) ;
#2 = DATE_AND_TIME ( #205, #3 ) ;
#3 = LOCAL_TIME ( 15, 49, 15.00000000000000000, #117 ) ;
#4 = CARTESIAN_POINT ( 'NONE',  ( -4.893065171390664994E-32, 1.716256230127367832E-33, -1.401429564281140250E-17 ) ) ;
#5 = APPROVAL_DATE_TIME ( #2, #303 ) ;
#6 = APPLICATION_CONTEXT ( 'configuration controlled 3d designs of mechanical parts and assemblies' ) ;
#7 = DIRECTION ( 'NONE',  ( 3.491481338843133355E-15, -1.224646799147352961E-16, 1.000000000000000000 ) ) ;
#8 = CARTESIAN_POINT ( 'NONE',  ( 1.396592535537253342E-14, 2.950777372387196072E-33, 4.000000000000000000 ) ) ;
#9 = AXIS2_PLACEMENT_3D ( 'NONE', #44, #222, #1 ) ;
#10 = CIRCLE ( 'NONE', #274, 0.3357649730810378652 ) ;
#11 = LOCAL_TIME ( 15, 49, 15.00000000000000000, #76 ) ;
#12 = DIRECTION ( 'NONE',  ( -3.491481338843133355E-15, 1.224646799147352961E-16, -1.000000000000000000 ) ) ;
#13 = CARTESIAN_POINT ( 'NONE',  ( 0.0000000000000000000, 0.0000000000000000000, 0.0000000000000000000 ) ) ;
#14 = VERTEX_POINT ( 'NONE', #296 ) ;
#15 = AXIS2_PLACEMENT_3D ( 'NONE', #231, #7, #291 ) ;
#16 = CARTESIAN_POINT ( 'NONE',  ( 2.793185071074506684E-14, 0.3599999999999992095, 8.000000000000000000 ) ) ;
#17 = DIRECTION ( 'NONE',  ( -3.491481338843133355E-15, 1.224646799147352961E-16, -1.000000000000000000 ) ) ;
#18 = EDGE_CURVE ( 'NONE', #279, #279, #10, .T. ) ;
#19 = CARTESIAN_POINT ( 'NONE',  ( 0.0000000000000000000, 0.0000000000000000000, 0.0000000000000000000 ) ) ;
#20 = FACE_OUTER_BOUND ( 'NONE', #149, .T. ) ;
#21 = CARTESIAN_POINT ( 'NONE',  ( 5.111611987305582039E-14, -1.792912134197796094E-15, 14.64023860141627686 ) ) ;
#22 = PERSON_AND_ORGANIZATION ( #146, #35 ) ;
#23 = PERSON_AND_ORGANIZATION_ROLE ( 'creator' ) ;
#24 = APPROVAL_ROLE ( '' ) ;
#25 = DIRECTION ( 'NONE',  ( 0.0000000000000000000, 1.000000000000000000, 0.0000000000000000000 ) ) ;
#26 =( GEOMETRIC_REPRESENTATION_CONTEXT ( 3 ) GLOBAL_UNCERTAINTY_ASSIGNED_CONTEXT ( ( #212 ) ) GLOBAL_UNIT_ASSIGNED_CONTEXT ( ( #68, #135, #158 ) ) REPRESENTATION_CONTEXT ( 'NONE', 'WORKASPACE' ) );
#27 = ORIENTED_EDGE ( 'NONE', *, *, #18, .F. ) ;
#28 = MANIFOLD_SOLID_BREP ( 'Corps-Déplacer/Copier1[2]', #34 ) ;
#29 = CALENDAR_DATE ( 2021, 29, 11 ) ;
#30 = CARTESIAN_POINT ( 'NONE',  ( 1.396592535537253342E-14, -4.898587196589411843E-16, 4.000000000000000000 ) ) ;
#31 = ADVANCED_FACE ( 'NONE', ( #181, #75 ), #206, .T. ) ;
#32 = AXIS2_PLACEMENT_3D ( 'NONE', #130, #129, #143 ) ;
#33 = ORIENTED_EDGE ( 'NONE', *, *, #60, .F. ) ;
#34 = CLOSED_SHELL ( 'NONE', ( #210, #239, #263, #105 ) ) ;
#35 = ORGANIZATION ( 'UNSPECIFIED', 'UNSPECIFIED', '' ) ;
#36 = FACE_OUTER_BOUND ( 'NONE', #86, .T. ) ;
#37 = EDGE_LOOP ( 'NONE', ( #141 ) ) ;
#38 = CARTESIAN_POINT ( 'NONE',  ( 0.0000000000000000000, 0.0000000000000000000, 0.0000000000000000000 ) ) ;
#39 = DIRECTION ( 'NONE',  ( -3.491481338843133355E-15, 1.224646799147352961E-16, -1.000000000000000000 ) ) ;
#40 = EDGE_CURVE ( 'NONE', #246, #246, #41, .T. ) ;
#41 = CIRCLE ( 'NONE', #9, 0.3935000000000000164 ) ;
#42 = VERTEX_POINT ( 'NONE', #164 ) ;
#43 = DIRECTION ( 'NONE',  ( 0.0000000000000000000, 1.000000000000000000, 0.0000000000000000000 ) ) ;
#44 = CARTESIAN_POINT ( 'NONE',  ( 1.396592535537253342E-14, -4.898587196589411843E-16, 4.000000000000000000 ) ) ;
#45 = FACE_BOUND ( 'NONE', #266, .T. ) ;
#46 = DIRECTION ( 'NONE',  ( 0.0000000000000000000, 1.000000000000000000, 0.0000000000000000000 ) ) ;
#47 = PERSON_AND_ORGANIZATION ( #146, #35 ) ;
#48 = EDGE_LOOP ( 'NONE', ( #292 ) ) ;
#49 = PLANE ( 'NONE',  #276 ) ;
#50 = APPLICATION_PROTOCOL_DEFINITION ( 'international standard', 'config_control_design', 1994, #6 ) ;
#51 = AXIS2_PLACEMENT_3D ( 'NONE', #21, #80, #25 ) ;
#52 = EDGE_LOOP ( 'NONE', ( #162 ) ) ;
#53 = DATE_AND_TIME ( #160, #11 ) ;
#54 = ORIENTED_EDGE ( 'NONE', *, *, #55, .F. ) ;
#55 = EDGE_CURVE ( 'NONE', #223, #223, #63, .T. ) ;
#56 = EDGE_LOOP ( 'NONE', ( #95 ) ) ;
#57 = CIRCLE ( 'NONE', #230, 1.500000000000003331 ) ;
#58 = AXIS2_PLACEMENT_3D ( 'NONE', #62, #165, #272 ) ;
#59 = DIRECTION ( 'NONE',  ( -4.275831445896957731E-31, -1.000000000000000000, -1.224646799147352961E-16 ) ) ;
#60 = EDGE_CURVE ( 'NONE', #218, #218, #57, .T. ) ;
#61 = CARTESIAN_POINT ( 'NONE',  ( 1.396592535537253342E-14, 0.3934999999999995168, 4.000000000000000000 ) ) ;
#62 = CARTESIAN_POINT ( 'NONE',  ( 2.914442945444142440E-14, -1.022248976309395884E-15, 8.347296355333845952 ) ) ;
#63 = CIRCLE ( 'NONE', #250, 0.3599999999999994871 ) ;
#64 = CIRCLE ( 'NONE', #161, 1.200000000000003286 ) ;
#65 = CARTESIAN_POINT ( 'NONE',  ( 1.326762908760390423E-13, 8.998558695971099120E-33, 38.00000000000000000 ) ) ;
#66 = FACE_BOUND ( 'NONE', #37, .T. ) ;
#67 = APPROVAL ( #115, 'UNSPECIFIED' ) ;
#68 =( LENGTH_UNIT ( ) NAMED_UNIT ( * ) SI_UNIT ( .MILLI., .METRE. ) );
#69 = DIRECTION ( 'NONE',  ( -3.491481338843133355E-15, 1.224646799147352961E-16, -1.000000000000000000 ) ) ;
#70 = CALENDAR_DATE ( 2021, 29, 11 ) ;
#71 = APPROVAL_ROLE ( '' ) ;
#72 = DATE_TIME_ROLE ( 'classification_date' ) ;
#73 = AXIS2_PLACEMENT_3D ( 'NONE', #110, #168, #271 ) ;
#74 = PERSON_AND_ORGANIZATION_ROLE ( 'classification_officer' ) ;
#75 = FACE_OUTER_BOUND ( 'NONE', #119, .T. ) ;
#76 = COORDINATED_UNIVERSAL_TIME_OFFSET ( 1, 0, .AHEAD. ) ;
#77 = PLANE ( 'NONE',  #211 ) ;
#78 = ORIENTED_EDGE ( 'NONE', *, *, #55, .T. ) ;
#79 = EDGE_LOOP ( 'NONE', ( #136 ) ) ;
#80 = DIRECTION ( 'NONE',  ( -3.491481338843133355E-15, 1.224646799147352961E-16, -1.000000000000000000 ) ) ;
#81 = DIRECTION ( 'NONE',  ( 4.275831445896957731E-31, 1.000000000000000000, 1.224646799147352961E-16 ) ) ;
#82 = FACE_OUTER_BOUND ( 'NONE', #285, .T. ) ;
#83 = CIRCLE ( 'NONE', #58, 0.3903844939755814480 ) ;
#84 = ADVANCED_FACE ( 'NONE', ( #176, #287 ), #281, .T. ) ;
#85 = CYLINDRICAL_SURFACE ( 'NONE', #190, 0.3934999999999997389 ) ;
#86 = EDGE_LOOP ( 'NONE', ( #104 ) ) ;
#87 = CARTESIAN_POINT ( 'NONE',  ( 3.491481338843133848E-16, 0.3934999999999995168, 0.1000000000000000194 ) ) ;
#88 = CARTESIAN_POINT ( 'NONE',  ( 2.793185071074506684E-14, -9.797174393178823685E-16, 8.000000000000000000 ) ) ;
#89 = APPROVAL_STATUS ( 'not_yet_approved' ) ;
#90 = SHAPE_DEFINITION_REPRESENTATION ( #194, #286 ) ;
#91 = SECURITY_CLASSIFICATION_LEVEL ( 'unclassified' ) ;
#92 = DIRECTION ( 'NONE',  ( -3.491481338843133355E-15, 1.224646799147352961E-16, -1.000000000000000000 ) ) ;
#93 = ORIENTED_EDGE ( 'NONE', *, *, #40, .F. ) ;
#94 = PERSON_AND_ORGANIZATION_ROLE ( 'creator' ) ;
#95 = ORIENTED_EDGE ( 'NONE', *, *, #155, .T. ) ;
#96 = EDGE_CURVE ( 'NONE', #200, #200, #167, .T. ) ;
#97 = LOCAL_TIME ( 15, 49, 15.00000000000000000, #261 ) ;
#98 = DIRECTION ( 'NONE',  ( -3.491481338843133355E-15, 1.224646799147352961E-16, -1.000000000000000000 ) ) ;
#99 = DIRECTION ( 'NONE',  ( -3.491481338843133355E-15, 1.224646799147352961E-16, -1.000000000000000000 ) ) ;
#100 = EDGE_LOOP ( 'NONE', ( #78 ) ) ;
#101 = ADVANCED_FACE ( 'NONE', ( #224, #118 ), #293, .F. ) ;
#102 = DIRECTION ( 'NONE',  ( -3.491481338843133355E-15, 1.224646799147352961E-16, -1.000000000000000000 ) ) ;
#103 = AXIS2_PLACEMENT_3D ( 'NONE', #19, #249, #125 ) ;
#104 = ORIENTED_EDGE ( 'NONE', *, *, #198, .T. ) ;
#105 = ADVANCED_FACE ( 'NONE', ( #258 ), #77, .T. ) ;
#106 = CARTESIAN_POINT ( 'NONE',  ( 1.326762908760390423E-13, -4.653657836759941152E-15, 38.00000000000000000 ) ) ;
#107 = CC_DESIGN_PERSON_AND_ORGANIZATION_ASSIGNMENT ( #175, #23, ( #151 ) ) ;
#108 = CYLINDRICAL_SURFACE ( 'NONE', #179, 0.3599999999999998757 ) ;
#109 = FACE_OUTER_BOUND ( 'NONE', #56, .T. ) ;
#110 = CARTESIAN_POINT ( 'NONE',  ( 1.396592535537253342E-14, 2.950777372387196072E-33, 4.000000000000000000 ) ) ;
#111 = CARTESIAN_POINT ( 'NONE',  ( 9.463679131915806782E-32, 0.3357649730810378652, 2.710505431213761085E-17 ) ) ;
#112 = CIRCLE ( 'NONE', #242, 0.3934999999999995168 ) ;
#113 = COORDINATED_UNIVERSAL_TIME_OFFSET ( 1, 0, .AHEAD. ) ;
#114 = CC_DESIGN_PERSON_AND_ORGANIZATION_ASSIGNMENT ( #22, #290, ( #123 ) ) ;
#115 = APPROVAL_STATUS ( 'not_yet_approved' ) ;
#116 = AXIS2_PLACEMENT_3D ( 'NONE', #215, #245, #46 ) ;
#117 = COORDINATED_UNIVERSAL_TIME_OFFSET ( 1, 0, .AHEAD. ) ;
#118 = FACE_OUTER_BOUND ( 'NONE', #52, .T. ) ;
#119 = EDGE_LOOP ( 'NONE', ( #183 ) ) ;
#120 = ORIENTED_EDGE ( 'NONE', *, *, #155, .F. ) ;
#121 = LOCAL_TIME ( 15, 49, 15.00000000000000000, #113 ) ;
#122 = DIRECTION ( 'NONE',  ( -4.275831445896957731E-31, -1.000000000000000000, -1.224646799147352961E-16 ) ) ;
#123 = PRODUCT ( '200019', '200019', '', ( #259 ) ) ;
#124 = CARTESIAN_POINT ( 'NONE',  ( 1.316288464743861212E-13, 1.499999999999998668, 37.69999999999999574 ) ) ;
#125 = DIRECTION ( 'NONE',  ( 4.275831445896957731E-31, 1.000000000000000000, 1.224646799147353207E-16 ) ) ;
#126 = VERTEX_POINT ( 'NONE', #61 ) ;
#127 = CIRCLE ( 'NONE', #188, 0.3600000000000002087 ) ;
#128 = AXIS2_PLACEMENT_3D ( 'NONE', #182, #138, #133 ) ;
#129 = DIRECTION ( 'NONE',  ( 3.491481338843133355E-15, -1.224646799147352961E-16, 1.000000000000000000 ) ) ;
#130 = CARTESIAN_POINT ( 'NONE',  ( 3.491481338843132369E-16, -1.224646799147352498E-17, 0.09999999999999996392 ) ) ;
#131 = MANIFOLD_SOLID_BREP ( 'Corps-Déplacer/Copier1[1]', #300 ) ;
#132 = PERSON_AND_ORGANIZATION ( #146, #35 ) ;
#133 = DIRECTION ( 'NONE',  ( 1.000000000000000000, 0.0000000000000000000, 0.0000000000000000000 ) ) ;
#134 = EDGE_LOOP ( 'NONE', ( #289 ) ) ;
#135 =( NAMED_UNIT ( * ) PLANE_ANGLE_UNIT ( ) SI_UNIT ( $, .RADIAN. ) );
#136 = ORIENTED_EDGE ( 'NONE', *, *, #40, .T. ) ;
#137 = CC_DESIGN_PERSON_AND_ORGANIZATION_ASSIGNMENT ( #132, #74, ( #174 ) ) ;
#138 = DIRECTION ( 'NONE',  ( 0.0000000000000000000, 0.0000000000000000000, 1.000000000000000000 ) ) ;
#139 = AXIS2_PLACEMENT_3D ( 'NONE', #65, #280, #251 ) ;
#140 = ORIENTED_EDGE ( 'NONE', *, *, #163, .F. ) ;
#141 = ORIENTED_EDGE ( 'NONE', *, *, #235, .T. ) ;
#142 = APPROVAL ( #89, 'UNSPECIFIED' ) ;
#143 = DIRECTION ( 'NONE',  ( -3.670768636062080323E-31, -1.000000000000000000, -1.377639355127707564E-16 ) ) ;
#144 = CC_DESIGN_APPROVAL ( #142, ( #174 ) ) ;
#145 = FACE_OUTER_BOUND ( 'NONE', #79, .T. ) ;
#146 = PERSON ( 'UNSPECIFIED', 'UNSPECIFIED', 'UNSPECIFIED', ('UNSPECIFIED'), ('UNSPECIFIED'), ('UNSPECIFIED') ) ;
#147 = CARTESIAN_POINT ( 'NONE',  ( 1.326762908760390423E-13, -4.653657836759941152E-15, 38.00000000000000000 ) ) ;
#148 = FACE_OUTER_BOUND ( 'NONE', #214, .T. ) ;
#149 = EDGE_LOOP ( 'NONE', ( #238 ) ) ;
#150 = AXIS2_PLACEMENT_3D ( 'NONE', #264, #185, #262 ) ;
#151 = PRODUCT_DEFINITION ( 'UNKNOWN', '', #152, #267 ) ;
#152 = PRODUCT_DEFINITION_FORMATION_WITH_SPECIFIED_SOURCE ( 'ANY', '', #123, .NOT_KNOWN. ) ;
#153 = VERTEX_POINT ( 'NONE', #16 ) ;
#154 = DATE_AND_TIME ( #70, #256 ) ;
#155 = EDGE_CURVE ( 'NONE', #126, #126, #255, .T. ) ;
#156 = ORIENTED_EDGE ( 'NONE', *, *, #202, .F. ) ;
#157 = APPROVAL_PERSON_ORGANIZATION ( #288, #142, #71 ) ;
#158 =( NAMED_UNIT ( * ) SI_UNIT ( $, .STERADIAN. ) SOLID_ANGLE_UNIT ( ) );
#159 = CARTESIAN_POINT ( 'NONE',  ( 1.316288464743861212E-13, -4.616918432785520292E-15, 37.69999999999999574 ) ) ;
#160 = CALENDAR_DATE ( 2021, 29, 11 ) ;
#161 = AXIS2_PLACEMENT_3D ( 'NONE', #106, #69, #197 ) ;
#162 = ORIENTED_EDGE ( 'NONE', *, *, #163, .T. ) ;
#163 = EDGE_CURVE ( 'NONE', #42, #42, #83, .T. ) ;
#164 = CARTESIAN_POINT ( 'NONE',  ( 2.914442945444142440E-14, 0.3903844939755803933, 8.347296355333845952 ) ) ;
#165 = DIRECTION ( 'NONE',  ( -3.491481338843133355E-15, 1.224646799147352961E-16, -1.000000000000000000 ) ) ;
#166 = FACE_OUTER_BOUND ( 'NONE', #240, .T. ) ;
#167 = CIRCLE ( 'NONE', #51, 1.499999999999997113 ) ;
#168 = DIRECTION ( 'NONE',  ( 3.491481338843133355E-15, -1.224646799147352961E-16, 1.000000000000000000 ) ) ;
#169 = FACE_OUTER_BOUND ( 'NONE', #48, .T. ) ;
#170 = FACE_OUTER_BOUND ( 'NONE', #134, .T. ) ;
#171 = CC_DESIGN_DATE_AND_TIME_ASSIGNMENT ( #178, #72, ( #174 ) ) ;
#172 = PLANE ( 'NONE',  #73 ) ;
#173 = FACE_OUTER_BOUND ( 'NONE', #253, .T. ) ;
#174 = SECURITY_CLASSIFICATION ( '', '', #91 ) ;
#175 = PERSON_AND_ORGANIZATION ( #146, #35 ) ;
#176 = FACE_OUTER_BOUND ( 'NONE', #254, .T. ) ;
#177 = DIRECTION ( 'NONE',  ( 4.275831445896957731E-31, 1.000000000000000000, 1.224646799147352961E-16 ) ) ;
#178 = DATE_AND_TIME ( #299, #97 ) ;
#179 = AXIS2_PLACEMENT_3D ( 'NONE', #38, #278, #81 ) ;
#180 = DIRECTION ( 'NONE',  ( 0.0000000000000000000, 1.000000000000000000, 0.0000000000000000000 ) ) ;
#181 = FACE_BOUND ( 'NONE', #265, .T. ) ;
#182 = CARTESIAN_POINT ( 'NONE',  ( 0.0000000000000000000, 0.0000000000000000000, 0.0000000000000000000 ) ) ;
#183 = ORIENTED_EDGE ( 'NONE', *, *, #96, .T. ) ;
#184 = CC_DESIGN_DATE_AND_TIME_ASSIGNMENT ( #229, #207, ( #151 ) ) ;
#185 = DIRECTION ( 'NONE',  ( -3.491481338843133355E-15, 1.224646799147352961E-16, -1.000000000000000000 ) ) ;
#186 = DIRECTION ( 'NONE',  ( 3.491481338843133355E-15, -1.224646799147352961E-16, 1.000000000000000000 ) ) ;
#187 = ORIENTED_EDGE ( 'NONE', *, *, #18, .T. ) ;
#188 = AXIS2_PLACEMENT_3D ( 'NONE', #88, #17, #43 ) ;
#189 = DIRECTION ( 'NONE',  ( 0.0000000000000000000, 1.000000000000000000, 0.0000000000000000000 ) ) ;
#190 = AXIS2_PLACEMENT_3D ( 'NONE', #13, #39, #220 ) ;
#191 = PRODUCT_RELATED_PRODUCT_CATEGORY ( 'detail', '', ( #123 ) ) ;
#192 = CC_DESIGN_PERSON_AND_ORGANIZATION_ASSIGNMENT ( #282, #204, ( #152 ) ) ;
#193 = APPROVAL_PERSON_ORGANIZATION ( #257, #67, #233 ) ;
#194 = PRODUCT_DEFINITION_SHAPE ( 'NONE', 'NONE',  #151 ) ;
#195 = DIRECTION ( 'NONE',  ( 3.670768636062080323E-31, 1.000000000000000000, 1.377639355127707564E-16 ) ) ;
#196 = FACE_OUTER_BOUND ( 'NONE', #217, .T. ) ;
#197 = DIRECTION ( 'NONE',  ( 0.0000000000000000000, 1.000000000000000000, 0.0000000000000000000 ) ) ;
#198 = EDGE_CURVE ( 'NONE', #297, #297, #112, .T. ) ;
#199 = CARTESIAN_POINT ( 'NONE',  ( 1.396592535537253342E-14, 0.3934999999999995168, 4.000000000000000000 ) ) ;
#200 = VERTEX_POINT ( 'NONE', #201 ) ;
#201 = CARTESIAN_POINT ( 'NONE',  ( 5.111611987305582039E-14, 1.499999999999995559, 14.64023860141627686 ) ) ;
#202 = EDGE_CURVE ( 'NONE', #153, #153, #127, .T. ) ;
#203 = APPLICATION_PROTOCOL_DEFINITION ( 'international standard', 'config_control_design', 1994, #209 ) ;
#204 = PERSON_AND_ORGANIZATION_ROLE ( 'design_supplier' ) ;
#205 = CALENDAR_DATE ( 2021, 29, 11 ) ;
#206 = CONICAL_SURFACE ( 'NONE', #15, 1.499999999999997113, 0.1745329251994260089 ) ;
#207 = DATE_TIME_ROLE ( 'creation_date' ) ;
#208 = EDGE_LOOP ( 'NONE', ( #93 ) ) ;
#209 = APPLICATION_CONTEXT ( 'configuration controlled 3d designs of mechanical parts and assemblies' ) ;
#210 = ADVANCED_FACE ( 'NONE', ( #173 ), #49, .F. ) ;
#211 = AXIS2_PLACEMENT_3D ( 'NONE', #8, #186, #59 ) ;
#212 = UNCERTAINTY_MEASURE_WITH_UNIT (LENGTH_MEASURE( 1.000000000000000082E-05 ), #68, 'distance_accuracy_value', 'NONE');
#213 = EDGE_LOOP ( 'NONE', ( #156 ) ) ;
#214 = EDGE_LOOP ( 'NONE', ( #54 ) ) ;
#215 = CARTESIAN_POINT ( 'NONE',  ( 1.416851402830312905E-14, -4.969645737583982706E-16, 4.058023702053559667 ) ) ;
#216 = CC_DESIGN_SECURITY_CLASSIFICATION ( #174, ( #152 ) ) ;
#217 = EDGE_LOOP ( 'NONE', ( #236 ) ) ;
#218 = VERTEX_POINT ( 'NONE', #124 ) ;
#219 = ADVANCED_FACE ( 'NONE', ( #169, #196 ), #294, .T. ) ;
#220 = DIRECTION ( 'NONE',  ( 4.275831445896957731E-31, 1.000000000000000000, 1.224646799147352961E-16 ) ) ;
#221 = CARTESIAN_POINT ( 'NONE',  ( 1.416851402830312905E-14, 0.3599999999999989875, 4.058023702053559667 ) ) ;
#222 = DIRECTION ( 'NONE',  ( -3.491481338843133355E-15, 1.224646799147352961E-16, -1.000000000000000000 ) ) ;
#223 = VERTEX_POINT ( 'NONE', #221 ) ;
#224 = FACE_OUTER_BOUND ( 'NONE', #213, .T. ) ;
#225 = APPROVAL_DATE_TIME ( #53, #67 ) ;
#226 = APPROVAL_STATUS ( 'not_yet_approved' ) ;
#227 = CARTESIAN_POINT ( 'NONE',  ( 1.416851402830312905E-14, -4.969645737583982706E-16, 4.058023702053559667 ) ) ;
#228 = ADVANCED_FACE ( 'NONE', ( #82, #66 ), #268, .T. ) ;
#229 = DATE_AND_TIME ( #29, #121 ) ;
#230 = AXIS2_PLACEMENT_3D ( 'NONE', #159, #92, #260 ) ;
#231 = CARTESIAN_POINT ( 'NONE',  ( 5.111611987305582039E-14, -1.792912134197796094E-15, 14.64023860141627686 ) ) ;
#232 = APPROVAL_PERSON_ORGANIZATION ( #47, #303, #24 ) ;
#233 = APPROVAL_ROLE ( '' ) ;
#234 = ORIENTED_EDGE ( 'NONE', *, *, #235, .F. ) ;
#235 = EDGE_CURVE ( 'NONE', #14, #14, #64, .T. ) ;
#236 = ORIENTED_EDGE ( 'NONE', *, *, #60, .T. ) ;
#237 = CC_DESIGN_APPROVAL ( #67, ( #151 ) ) ;
#238 = ORIENTED_EDGE ( 'NONE', *, *, #198, .F. ) ;
#239 = ADVANCED_FACE ( 'NONE', ( #45, #36 ), #243, .T. ) ;
#240 = EDGE_LOOP ( 'NONE', ( #234 ) ) ;
#241 = AXIS2_PLACEMENT_3D ( 'NONE', #30, #102, #189 ) ;
#242 = AXIS2_PLACEMENT_3D ( 'NONE', #244, #12, #195 ) ;
#243 = CONICAL_SURFACE ( 'NONE', #32, 0.3934999999999995168, 0.5235987755982923764 ) ;
#244 = CARTESIAN_POINT ( 'NONE',  ( 3.491481338843132369E-16, -1.224646799147352498E-17, 0.09999999999999996392 ) ) ;
#245 = DIRECTION ( 'NONE',  ( -3.491481338843133355E-15, 1.224646799147352961E-16, -1.000000000000000000 ) ) ;
#246 = VERTEX_POINT ( 'NONE', #199 ) ;
#247 = ADVANCED_FACE ( 'NONE', ( #166 ), #295, .F. ) ;
#248 = DIRECTION ( 'NONE',  ( -3.491481338843133355E-15, 1.224646799147352961E-16, -1.000000000000000000 ) ) ;
#249 = DIRECTION ( 'NONE',  ( -3.491481338843133355E-15, 1.224646799147352961E-16, -1.000000000000000000 ) ) ;
#250 = AXIS2_PLACEMENT_3D ( 'NONE', #227, #98, #180 ) ;
#251 = DIRECTION ( 'NONE',  ( 4.275831445896957731E-31, 1.000000000000000000, 1.224646799147352961E-16 ) ) ;
#252 = APPROVAL_DATE_TIME ( #154, #142 ) ;
#253 = EDGE_LOOP ( 'NONE', ( #187 ) ) ;
#254 = EDGE_LOOP ( 'NONE', ( #120 ) ) ;
#255 = CIRCLE ( 'NONE', #241, 0.3935000000000000164 ) ;
#256 = LOCAL_TIME ( 15, 49, 15.00000000000000000, #301 ) ;
#257 = PERSON_AND_ORGANIZATION ( #146, #35 ) ;
#258 = FACE_OUTER_BOUND ( 'NONE', #208, .T. ) ;
#259 = MECHANICAL_CONTEXT ( 'NONE', #209, 'mechanical' ) ;
#260 = DIRECTION ( 'NONE',  ( 0.0000000000000000000, 1.000000000000000000, 0.0000000000000000000 ) ) ;
#261 = COORDINATED_UNIVERSAL_TIME_OFFSET ( 1, 0, .AHEAD. ) ;
#262 = DIRECTION ( 'NONE',  ( 4.275831445896957731E-31, 1.000000000000000000, 1.224646799147352961E-16 ) ) ;
#263 = ADVANCED_FACE ( 'NONE', ( #20, #145 ), #85, .T. ) ;
#264 = CARTESIAN_POINT ( 'NONE',  ( 2.793185071074506684E-14, -8.673617379884035472E-16, 8.000000000000000000 ) ) ;
#265 = EDGE_LOOP ( 'NONE', ( #140 ) ) ;
#266 = EDGE_LOOP ( 'NONE', ( #27 ) ) ;
#267 = DESIGN_CONTEXT ( 'detailed design', #6, 'design' ) ;
#268 = CONICAL_SURFACE ( 'NONE', #277, 1.200000000000003286, 0.7853981633974453924 ) ;
#269 = CC_DESIGN_APPROVAL ( #303, ( #152 ) ) ;
#270 = CC_DESIGN_PERSON_AND_ORGANIZATION_ASSIGNMENT ( #284, #94, ( #152 ) ) ;
#271 = DIRECTION ( 'NONE',  ( -4.275831445896957731E-31, -1.000000000000000000, -1.224646799147352961E-16 ) ) ;
#272 = DIRECTION ( 'NONE',  ( 0.0000000000000000000, 1.000000000000000000, 0.0000000000000000000 ) ) ;
#273 = ADVANCED_FACE ( 'NONE', ( #109 ), #172, .F. ) ;
#274 = AXIS2_PLACEMENT_3D ( 'NONE', #4, #99, #177 ) ;
#275 = DIRECTION ( 'NONE',  ( 0.0000000000000000000, 1.000000000000000000, 0.0000000000000000000 ) ) ;
#276 = AXIS2_PLACEMENT_3D ( 'NONE', #302, #283, #122 ) ;
#277 = AXIS2_PLACEMENT_3D ( 'NONE', #147, #248, #275 ) ;
#278 = DIRECTION ( 'NONE',  ( -3.491481338843133355E-15, 1.224646799147352961E-16, -1.000000000000000000 ) ) ;
#279 = VERTEX_POINT ( 'NONE', #111 ) ;
#280 = DIRECTION ( 'NONE',  ( -3.491481338843133355E-15, 1.224646799147352961E-16, -1.000000000000000000 ) ) ;
#281 = CONICAL_SURFACE ( 'NONE', #116, 0.3599999999999994871, 0.5235987755982914882 ) ;
#282 = PERSON_AND_ORGANIZATION ( #146, #35 ) ;
#283 = DIRECTION ( 'NONE',  ( 3.491481338843133355E-15, -1.224646799147352961E-16, 1.000000000000000000 ) ) ;
#284 = PERSON_AND_ORGANIZATION ( #146, #35 ) ;
#285 = EDGE_LOOP ( 'NONE', ( #33 ) ) ;
#286 = ADVANCED_BREP_SHAPE_REPRESENTATION ( '200019', ( #131, #28, #128 ), #26 ) ;
#287 = FACE_BOUND ( 'NONE', #100, .T. ) ;
#288 = PERSON_AND_ORGANIZATION ( #146, #35 ) ;
#289 = ORIENTED_EDGE ( 'NONE', *, *, #202, .T. ) ;
#290 = PERSON_AND_ORGANIZATION_ROLE ( 'design_owner' ) ;
#291 = DIRECTION ( 'NONE',  ( 0.0000000000000000000, -1.000000000000000000, 0.0000000000000000000 ) ) ;
#292 = ORIENTED_EDGE ( 'NONE', *, *, #96, .F. ) ;
#293 = TOROIDAL_SURFACE ( 'NONE', #150, 2.360000000000000320, 2.000000000000000000 ) ;
#294 = CYLINDRICAL_SURFACE ( 'NONE', #103, 1.500000000000000222 ) ;
#295 = PLANE ( 'NONE',  #139 ) ;
#296 = CARTESIAN_POINT ( 'NONE',  ( 1.326762908760390423E-13, 1.199999999999998845, 38.00000000000000000 ) ) ;
#297 = VERTEX_POINT ( 'NONE', #87 ) ;
#298 = ADVANCED_FACE ( 'NONE', ( #148, #170 ), #108, .T. ) ;
#299 = CALENDAR_DATE ( 2021, 29, 11 ) ;
#300 = CLOSED_SHELL ( 'NONE', ( #273, #84, #298, #101, #31, #219, #228, #247 ) ) ;
#301 = COORDINATED_UNIVERSAL_TIME_OFFSET ( 1, 0, .AHEAD. ) ;
#302 = CARTESIAN_POINT ( 'NONE',  ( -2.446532585695332497E-32, 8.581281150636839160E-34, -7.007147821405701251E-18 ) ) ;
#303 = APPROVAL ( #226, 'UNSPECIFIED' ) ;
ENDSEC;
END-ISO-10303-21;
