ISO-10303-21;
HEADER;
FILE_DESCRIPTION (( 'STEP AP203' ),
    '1' );
FILE_NAME ('200018.step',
    '2021-11-26T14:47:23',
    ( '' ),
    ( '' ),
    'SwSTEP 2.0',
    'SolidWorks 2019',
    '' );
FILE_SCHEMA (( 'CONFIG_CONTROL_DESIGN' ));
ENDSEC;

DATA;
#1 = EDGE_CURVE ( 'NONE', #259, #259, #11, .T. ) ;
#2 = APPROVAL_STATUS ( 'not_yet_approved' ) ;
#3 = COORDINATED_UNIVERSAL_TIME_OFFSET ( 1, 0, .AHEAD. ) ;
#4 = ADVANCED_BREP_SHAPE_REPRESENTATION ( '200018', ( #105, #200, #65 ), #15 ) ;
#5 = CALENDAR_DATE ( 2021, 26, 11 ) ;
#6 = ORIENTED_EDGE ( 'NONE', *, *, #24, .F. ) ;
#7 = EDGE_CURVE ( 'NONE', #41, #41, #245, .T. ) ;
#8 = DATE_AND_TIME ( #5, #180 ) ;
#9 = DIRECTION ( 'NONE',  ( 4.275831445896957731E-31, 1.000000000000000000, 1.224646799147352961E-16 ) ) ;
#10 = ORIENTED_EDGE ( 'NONE', *, *, #251, .F. ) ;
#11 = CIRCLE ( 'NONE', #93, 0.3938844939755812291 ) ;
#12 = EDGE_LOOP ( 'NONE', ( #51 ) ) ;
#13 = DIRECTION ( 'NONE',  ( 3.491481338843133355E-15, -1.224646799147352961E-16, 1.000000000000000000 ) ) ;
#14 = ADVANCED_FACE ( 'NONE', ( #58, #173 ), #240, .T. ) ;
#15 =( GEOMETRIC_REPRESENTATION_CONTEXT ( 3 ) GLOBAL_UNCERTAINTY_ASSIGNED_CONTEXT ( ( #194 ) ) GLOBAL_UNIT_ASSIGNED_CONTEXT ( ( #266, #217, #109 ) ) REPRESENTATION_CONTEXT ( 'NONE', 'WORKASPACE' ) );
#16 = DIRECTION ( 'NONE',  ( 4.275831445896957731E-31, 1.000000000000000000, 1.224646799147352961E-16 ) ) ;
#17 = LOCAL_TIME ( 15, 47, 23.00000000000000000, #189 ) ;
#18 = FACE_OUTER_BOUND ( 'NONE', #121, .T. ) ;
#19 = CALENDAR_DATE ( 2021, 26, 11 ) ;
#20 = DATE_AND_TIME ( #225, #136 ) ;
#21 = CC_DESIGN_PERSON_AND_ORGANIZATION_ASSIGNMENT ( #119, #163, ( #112 ) ) ;
#22 = AXIS2_PLACEMENT_3D ( 'NONE', #101, #190, #9 ) ;
#23 = APPROVAL_PERSON_ORGANIZATION ( #91, #175, #118 ) ;
#24 = EDGE_CURVE ( 'NONE', #113, #113, #117, .T. ) ;
#25 = DIRECTION ( 'NONE',  ( 3.491481338843133355E-15, -1.224646799147352961E-16, 1.000000000000000000 ) ) ;
#26 = EDGE_CURVE ( 'NONE', #177, #177, #196, .T. ) ;
#27 = AXIS2_PLACEMENT_3D ( 'NONE', #263, #201, #199 ) ;
#28 = AXIS2_PLACEMENT_3D ( 'NONE', #131, #107, #264 ) ;
#29 = CC_DESIGN_APPROVAL ( #49, ( #112 ) ) ;
#30 = EDGE_LOOP ( 'NONE', ( #144 ) ) ;
#31 = PERSON_AND_ORGANIZATION ( #64, #183 ) ;
#32 = EDGE_LOOP ( 'NONE', ( #186 ) ) ;
#33 = SHAPE_DEFINITION_REPRESENTATION ( #48, #4 ) ;
#34 = VERTEX_POINT ( 'NONE', #279 ) ;
#35 = EDGE_LOOP ( 'NONE', ( #229 ) ) ;
#36 = APPROVAL ( #50, 'UNSPECIFIED' ) ;
#37 = AXIS2_PLACEMENT_3D ( 'NONE', #242, #277, #16 ) ;
#38 = CARTESIAN_POINT ( 'NONE',  ( 1.396592535537253342E-14, -4.898587196589411843E-16, 4.000000000000000000 ) ) ;
#39 = CARTESIAN_POINT ( 'NONE',  ( 0.0000000000000000000, 0.3057649730810373390, 0.0000000000000000000 ) ) ;
#40 = FACE_OUTER_BOUND ( 'NONE', #274, .T. ) ;
#41 = VERTEX_POINT ( 'NONE', #85 ) ;
#42 = DIRECTION ( 'NONE',  ( 0.0000000000000000000, 1.000000000000000000, 0.0000000000000000000 ) ) ;
#43 = CALENDAR_DATE ( 2021, 26, 11 ) ;
#44 = DIRECTION ( 'NONE',  ( 3.973720655544513495E-31, 1.000000000000000000, 1.118502928974044629E-16 ) ) ;
#45 = DIRECTION ( 'NONE',  ( 3.491481338843133355E-15, -1.224646799147352961E-16, 1.000000000000000000 ) ) ;
#46 = COORDINATED_UNIVERSAL_TIME_OFFSET ( 1, 0, .AHEAD. ) ;
#47 = AXIS2_PLACEMENT_3D ( 'NONE', #281, #134, #249 ) ;
#48 = PRODUCT_DEFINITION_SHAPE ( 'NONE', 'NONE',  #87 ) ;
#49 = APPROVAL ( #230, 'UNSPECIFIED' ) ;
#50 = APPROVAL_STATUS ( 'not_yet_approved' ) ;
#51 = ORIENTED_EDGE ( 'NONE', *, *, #67, .T. ) ;
#52 = FACE_OUTER_BOUND ( 'NONE', #275, .T. ) ;
#53 = CC_DESIGN_APPROVAL ( #36, ( #77 ) ) ;
#54 = ORIENTED_EDGE ( 'NONE', *, *, #92, .F. ) ;
#55 = EDGE_LOOP ( 'NONE', ( #232 ) ) ;
#56 = DIRECTION ( 'NONE',  ( 4.275831445896957731E-31, 1.000000000000000000, 1.224646799147353207E-16 ) ) ;
#57 = VERTEX_POINT ( 'NONE', #127 ) ;
#58 = FACE_OUTER_BOUND ( 'NONE', #73, .T. ) ;
#59 = CARTESIAN_POINT ( 'NONE',  ( 2.914442945444142440E-14, 0.3938844939755802299, 8.347296355333845952 ) ) ;
#60 = ADVANCED_FACE ( 'NONE', ( #148, #84 ), #219, .T. ) ;
#61 = MECHANICAL_CONTEXT ( 'NONE', #153, 'mechanical' ) ;
#62 = CARTESIAN_POINT ( 'NONE',  ( 2.793185071074506684E-14, 0.3634999999999992681, 8.000000000000000000 ) ) ;
#63 = CARTESIAN_POINT ( 'NONE',  ( 0.0000000000000000000, 0.0000000000000000000, 0.0000000000000000000 ) ) ;
#64 = PERSON ( 'UNSPECIFIED', 'UNSPECIFIED', 'UNSPECIFIED', ('UNSPECIFIED'), ('UNSPECIFIED'), ('UNSPECIFIED') ) ;
#65 = AXIS2_PLACEMENT_3D ( 'NONE', #170, #166, #197 ) ;
#66 = FACE_OUTER_BOUND ( 'NONE', #126, .T. ) ;
#67 = EDGE_CURVE ( 'NONE', #216, #216, #110, .T. ) ;
#68 = AXIS2_PLACEMENT_3D ( 'NONE', #280, #133, #42 ) ;
#69 = DATE_AND_TIME ( #43, #226 ) ;
#70 = CC_DESIGN_PERSON_AND_ORGANIZATION_ASSIGNMENT ( #156, #207, ( #87 ) ) ;
#71 = DATE_AND_TIME ( #98, #17 ) ;
#72 = APPROVAL_ROLE ( '' ) ;
#73 = EDGE_LOOP ( 'NONE', ( #257 ) ) ;
#74 = AXIS2_PLACEMENT_3D ( 'NONE', #181, #45, #224 ) ;
#75 = ORIENTED_EDGE ( 'NONE', *, *, #1, .F. ) ;
#76 = AXIS2_PLACEMENT_3D ( 'NONE', #81, #13, #129 ) ;
#77 = SECURITY_CLASSIFICATION ( '', '', #125 ) ;
#78 = ORIENTED_EDGE ( 'NONE', *, *, #26, .T. ) ;
#79 = CARTESIAN_POINT ( 'NONE',  ( 1.316288464743861212E-13, -4.616918432785520292E-15, 37.69999999999999574 ) ) ;
#80 = APPROVAL_DATE_TIME ( #20, #36 ) ;
#81 = CARTESIAN_POINT ( 'NONE',  ( 1.396592535537253342E-14, 2.725813404987915446E-33, 4.000000000000000000 ) ) ;
#82 = ADVANCED_FACE ( 'NONE', ( #282, #267 ), #192, .T. ) ;
#83 = DIRECTION ( 'NONE',  ( -3.491481338843133355E-15, 1.224646799147352961E-16, -1.000000000000000000 ) ) ;
#84 = FACE_OUTER_BOUND ( 'NONE', #188, .T. ) ;
#85 = CARTESIAN_POINT ( 'NONE',  ( 1.316288464743861212E-13, 1.499999999999998668, 37.69999999999999574 ) ) ;
#86 = DIRECTION ( 'NONE',  ( 4.275831445896957731E-31, 1.000000000000000000, 1.224646799147353207E-16 ) ) ;
#87 = PRODUCT_DEFINITION ( 'UNKNOWN', '', #112, #262 ) ;
#88 = DIRECTION ( 'NONE',  ( -3.491481338843133355E-15, 1.224646799147352961E-16, -1.000000000000000000 ) ) ;
#89 = CC_DESIGN_SECURITY_CLASSIFICATION ( #77, ( #112 ) ) ;
#90 = APPLICATION_PROTOCOL_DEFINITION ( 'international standard', 'config_control_design', 1994, #184 ) ;
#91 = PERSON_AND_ORGANIZATION ( #64, #183 ) ;
#92 = EDGE_CURVE ( 'NONE', #106, #106, #182, .T. ) ;
#93 = AXIS2_PLACEMENT_3D ( 'NONE', #111, #152, #116 ) ;
#94 = AXIS2_PLACEMENT_3D ( 'NONE', #283, #88, #233 ) ;
#95 = ORIENTED_EDGE ( 'NONE', *, *, #273, .T. ) ;
#96 = APPROVAL_DATE_TIME ( #8, #49 ) ;
#97 = PRODUCT ( '200018', '200018', '', ( #61 ) ) ;
#98 = CALENDAR_DATE ( 2021, 26, 11 ) ;
#99 = CC_DESIGN_DATE_AND_TIME_ASSIGNMENT ( #208, #120, ( #87 ) ) ;
#100 = ORIENTED_EDGE ( 'NONE', *, *, #7, .T. ) ;
#101 = CARTESIAN_POINT ( 'NONE',  ( 1.326762908760390423E-13, 8.998558695971099120E-33, 38.00000000000000000 ) ) ;
#102 = LOCAL_TIME ( 15, 47, 23.00000000000000000, #46 ) ;
#103 = EDGE_LOOP ( 'NONE', ( #6 ) ) ;
#104 = CARTESIAN_POINT ( 'NONE',  ( 1.326762908760390423E-13, -4.653657836759941152E-15, 38.00000000000000000 ) ) ;
#105 = MANIFOLD_SOLID_BREP ( 'Corps-Déplacer/Copier1[1]', #278 ) ;
#106 = VERTEX_POINT ( 'NONE', #168 ) ;
#107 = DIRECTION ( 'NONE',  ( -3.491481338843133355E-15, 1.224646799147352961E-16, -1.000000000000000000 ) ) ;
#108 = CARTESIAN_POINT ( 'NONE',  ( 0.0000000000000000000, 0.0000000000000000000, 0.0000000000000000000 ) ) ;
#109 =( NAMED_UNIT ( * ) SI_UNIT ( $, .STERADIAN. ) SOLID_ANGLE_UNIT ( ) );
#110 = CIRCLE ( 'NONE', #28, 0.3057649730810373390 ) ;
#111 = CARTESIAN_POINT ( 'NONE',  ( 2.914442945444142440E-14, -1.022248976309395884E-15, 8.347296355333845952 ) ) ;
#112 = PRODUCT_DEFINITION_FORMATION_WITH_SPECIFIED_SOURCE ( 'ANY', '', #97, .NOT_KNOWN. ) ;
#113 = VERTEX_POINT ( 'NONE', #62 ) ;
#114 = DIRECTION ( 'NONE',  ( -3.491481338843133355E-15, 1.224646799147352961E-16, -1.000000000000000000 ) ) ;
#115 = CC_DESIGN_DATE_AND_TIME_ASSIGNMENT ( #71, #160, ( #77 ) ) ;
#116 = DIRECTION ( 'NONE',  ( 0.0000000000000000000, 1.000000000000000000, 0.0000000000000000000 ) ) ;
#117 = CIRCLE ( 'NONE', #27, 0.3635000000000002118 ) ;
#118 = APPROVAL_ROLE ( '' ) ;
#119 = PERSON_AND_ORGANIZATION ( #64, #183 ) ;
#120 = DATE_TIME_ROLE ( 'creation_date' ) ;
#121 = EDGE_LOOP ( 'NONE', ( #215 ) ) ;
#122 = PLANE ( 'NONE',  #22 ) ;
#123 = AXIS2_PLACEMENT_3D ( 'NONE', #108, #178, #241 ) ;
#124 = EDGE_LOOP ( 'NONE', ( #271 ) ) ;
#125 = SECURITY_CLASSIFICATION_LEVEL ( 'unclassified' ) ;
#126 = EDGE_LOOP ( 'NONE', ( #212 ) ) ;
#127 = CARTESIAN_POINT ( 'NONE',  ( 3.491481338843133848E-16, 0.3634999999999990461, 0.1000000000000000056 ) ) ;
#128 = ORIENTED_EDGE ( 'NONE', *, *, #24, .T. ) ;
#129 = DIRECTION ( 'NONE',  ( -4.275831445896957731E-31, -1.000000000000000000, -1.224646799147352961E-16 ) ) ;
#130 = ADVANCED_FACE ( 'NONE', ( #66 ), #250, .T. ) ;
#131 = CARTESIAN_POINT ( 'NONE',  ( -1.307399486953736155E-31, 4.585740095736250770E-33, -3.744540955750688791E-17 ) ) ;
#132 = DIRECTION ( 'NONE',  ( 0.0000000000000000000, 1.000000000000000000, 0.0000000000000000000 ) ) ;
#133 = DIRECTION ( 'NONE',  ( -3.491481338843133355E-15, 1.224646799147352961E-16, -1.000000000000000000 ) ) ;
#134 = DIRECTION ( 'NONE',  ( 3.491481338843133355E-15, -1.224646799147352961E-16, 1.000000000000000000 ) ) ;
#135 = DIRECTION ( 'NONE',  ( -3.973720655544513495E-31, -1.000000000000000000, -1.118502928974044629E-16 ) ) ;
#136 = LOCAL_TIME ( 15, 47, 23.00000000000000000, #3 ) ;
#137 = CARTESIAN_POINT ( 'NONE',  ( 1.396592535537253342E-14, -4.898587196589411843E-16, 4.000000000000000000 ) ) ;
#138 = DIRECTION ( 'NONE',  ( 0.0000000000000000000, 1.000000000000000000, 0.0000000000000000000 ) ) ;
#139 = FACE_OUTER_BOUND ( 'NONE', #103, .T. ) ;
#140 = APPROVAL_ROLE ( '' ) ;
#141 = PERSON_AND_ORGANIZATION_ROLE ( 'classification_officer' ) ;
#142 = ADVANCED_FACE ( 'NONE', ( #18, #203 ), #247, .T. ) ;
#143 = DIRECTION ( 'NONE',  ( -4.275831445896957731E-31, -1.000000000000000000, -1.224646799147352961E-16 ) ) ;
#144 = ORIENTED_EDGE ( 'NONE', *, *, #1, .T. ) ;
#145 = AXIS2_PLACEMENT_3D ( 'NONE', #38, #193, #234 ) ;
#146 = APPROVAL_PERSON_ORGANIZATION ( #227, #49, #72 ) ;
#147 = EDGE_LOOP ( 'NONE', ( #75 ) ) ;
#148 = FACE_BOUND ( 'NONE', #124, .T. ) ;
#149 = CARTESIAN_POINT ( 'NONE',  ( 1.396592535537253342E-14, 0.3634999999999991571, 4.000000000000000000 ) ) ;
#150 = PLANE ( 'NONE',  #76 ) ;
#151 = ADVANCED_FACE ( 'NONE', ( #258 ), #213, .F. ) ;
#152 = DIRECTION ( 'NONE',  ( -3.491481338843133355E-15, 1.224646799147352961E-16, -1.000000000000000000 ) ) ;
#153 = APPLICATION_CONTEXT ( 'configuration controlled 3d designs of mechanical parts and assemblies' ) ;
#154 = CYLINDRICAL_SURFACE ( 'NONE', #123, 0.3634999999999998788 ) ;
#155 = PRODUCT_RELATED_PRODUCT_CATEGORY ( 'detail', '', ( #97 ) ) ;
#156 = PERSON_AND_ORGANIZATION ( #64, #183 ) ;
#157 = DIRECTION ( 'NONE',  ( -3.491481338843133355E-15, 1.224646799147352961E-16, -1.000000000000000000 ) ) ;
#158 = APPROVAL_DATE_TIME ( #69, #175 ) ;
#159 = CLOSED_SHELL ( 'NONE', ( #151, #60, #82, #130 ) ) ;
#160 = DATE_TIME_ROLE ( 'classification_date' ) ;
#161 = CC_DESIGN_PERSON_AND_ORGANIZATION_ASSIGNMENT ( #31, #141, ( #77 ) ) ;
#162 = AXIS2_PLACEMENT_3D ( 'NONE', #63, #169, #86 ) ;
#163 = PERSON_AND_ORGANIZATION_ROLE ( 'creator' ) ;
#164 = CARTESIAN_POINT ( 'NONE',  ( -6.536997434768680777E-32, 2.292870047868125385E-33, -1.872270477875344395E-17 ) ) ;
#165 = EDGE_LOOP ( 'NONE', ( #10 ) ) ;
#166 = DIRECTION ( 'NONE',  ( 0.0000000000000000000, 0.0000000000000000000, 1.000000000000000000 ) ) ;
#167 = FACE_BOUND ( 'NONE', #147, .T. ) ;
#168 = CARTESIAN_POINT ( 'NONE',  ( 1.396592535537253342E-14, 0.3634999999999991571, 4.000000000000000000 ) ) ;
#169 = DIRECTION ( 'NONE',  ( -3.491481338843133355E-15, 1.224646799147352961E-16, -1.000000000000000000 ) ) ;
#170 = CARTESIAN_POINT ( 'NONE',  ( 0.0000000000000000000, 0.0000000000000000000, 0.0000000000000000000 ) ) ;
#171 = AXIS2_PLACEMENT_3D ( 'NONE', #236, #176, #135 ) ;
#172 = CIRCLE ( 'NONE', #237, 0.3634999999999990461 ) ;
#173 = FACE_OUTER_BOUND ( 'NONE', #191, .T. ) ;
#174 = APPLICATION_PROTOCOL_DEFINITION ( 'international standard', 'config_control_design', 1994, #153 ) ;
#175 = APPROVAL ( #2, 'UNSPECIFIED' ) ;
#176 = DIRECTION ( 'NONE',  ( 3.491481338843133355E-15, -1.224646799147352961E-16, 1.000000000000000000 ) ) ;
#177 = VERTEX_POINT ( 'NONE', #261 ) ;
#178 = DIRECTION ( 'NONE',  ( -3.491481338843133355E-15, 1.224646799147352961E-16, -1.000000000000000000 ) ) ;
#179 = AXIS2_PLACEMENT_3D ( 'NONE', #79, #83, #221 ) ;
#180 = LOCAL_TIME ( 15, 47, 23.00000000000000000, #211 ) ;
#181 = CARTESIAN_POINT ( 'NONE',  ( 1.396592535537253342E-14, 2.725813404987915446E-33, 4.000000000000000000 ) ) ;
#182 = CIRCLE ( 'NONE', #205, 0.3634999999999996012 ) ;
#183 = ORGANIZATION ( 'UNSPECIFIED', 'UNSPECIFIED', '' ) ;
#184 = APPLICATION_CONTEXT ( 'configuration controlled 3d designs of mechanical parts and assemblies' ) ;
#185 = ADVANCED_FACE ( 'NONE', ( #228 ), #122, .F. ) ;
#186 = ORIENTED_EDGE ( 'NONE', *, *, #223, .F. ) ;
#187 = APPROVAL_PERSON_ORGANIZATION ( #252, #36, #140 ) ;
#188 = EDGE_LOOP ( 'NONE', ( #253 ) ) ;
#189 = COORDINATED_UNIVERSAL_TIME_OFFSET ( 1, 0, .AHEAD. ) ;
#190 = DIRECTION ( 'NONE',  ( -3.491481338843133355E-15, 1.224646799147352961E-16, -1.000000000000000000 ) ) ;
#191 = EDGE_LOOP ( 'NONE', ( #100 ) ) ;
#192 = CYLINDRICAL_SURFACE ( 'NONE', #162, 0.3634999999999993237 ) ;
#193 = DIRECTION ( 'NONE',  ( -3.491481338843133355E-15, 1.224646799147352961E-16, -1.000000000000000000 ) ) ;
#194 = UNCERTAINTY_MEASURE_WITH_UNIT (LENGTH_MEASURE( 1.000000000000000082E-05 ), #266, 'distance_accuracy_value', 'NONE');
#195 = CC_DESIGN_PERSON_AND_ORGANIZATION_ASSIGNMENT ( #204, #246, ( #97 ) ) ;
#196 = CIRCLE ( 'NONE', #68, 1.499999999999997113 ) ;
#197 = DIRECTION ( 'NONE',  ( 1.000000000000000000, 0.0000000000000000000, 0.0000000000000000000 ) ) ;
#198 = TOROIDAL_SURFACE ( 'NONE', #37, 2.363500000000000156, 2.000000000000000000 ) ;
#199 = DIRECTION ( 'NONE',  ( 0.0000000000000000000, 1.000000000000000000, 0.0000000000000000000 ) ) ;
#200 = MANIFOLD_SOLID_BREP ( 'Corps-Déplacer/Copier1[2]', #159 ) ;
#201 = DIRECTION ( 'NONE',  ( -3.491481338843133355E-15, 1.224646799147352961E-16, -1.000000000000000000 ) ) ;
#202 = ADVANCED_FACE ( 'NONE', ( #255, #52 ), #154, .T. ) ;
#203 = FACE_BOUND ( 'NONE', #55, .T. ) ;
#204 = PERSON_AND_ORGANIZATION ( #64, #183 ) ;
#205 = AXIS2_PLACEMENT_3D ( 'NONE', #137, #157, #138 ) ;
#206 = CC_DESIGN_APPROVAL ( #175, ( #87 ) ) ;
#207 = PERSON_AND_ORGANIZATION_ROLE ( 'creator' ) ;
#208 = DATE_AND_TIME ( #19, #102 ) ;
#209 = CIRCLE ( 'NONE', #248, 1.200000000000003286 ) ;
#210 = EDGE_LOOP ( 'NONE', ( #54 ) ) ;
#211 = COORDINATED_UNIVERSAL_TIME_OFFSET ( 1, 0, .AHEAD. ) ;
#212 = ORIENTED_EDGE ( 'NONE', *, *, #273, .F. ) ;
#213 = PLANE ( 'NONE',  #220 ) ;
#214 = EDGE_LOOP ( 'NONE', ( #95 ) ) ;
#215 = ORIENTED_EDGE ( 'NONE', *, *, #7, .F. ) ;
#216 = VERTEX_POINT ( 'NONE', #39 ) ;
#217 =( NAMED_UNIT ( * ) PLANE_ANGLE_UNIT ( ) SI_UNIT ( $, .RADIAN. ) );
#218 = FACE_OUTER_BOUND ( 'NONE', #35, .T. ) ;
#219 = CONICAL_SURFACE ( 'NONE', #171, 0.3634999999999990461, 0.5235987755982921543 ) ;
#220 = AXIS2_PLACEMENT_3D ( 'NONE', #164, #25, #143 ) ;
#221 = DIRECTION ( 'NONE',  ( 0.0000000000000000000, 1.000000000000000000, 0.0000000000000000000 ) ) ;
#222 = ADVANCED_FACE ( 'NONE', ( #167, #40 ), #268, .T. ) ;
#223 = EDGE_CURVE ( 'NONE', #57, #57, #172, .T. ) ;
#224 = DIRECTION ( 'NONE',  ( -4.275831445896957731E-31, -1.000000000000000000, -1.224646799147352961E-16 ) ) ;
#225 = CALENDAR_DATE ( 2021, 26, 11 ) ;
#226 = LOCAL_TIME ( 15, 47, 23.00000000000000000, #270 ) ;
#227 = PERSON_AND_ORGANIZATION ( #64, #183 ) ;
#228 = FACE_OUTER_BOUND ( 'NONE', #165, .T. ) ;
#229 = ORIENTED_EDGE ( 'NONE', *, *, #92, .T. ) ;
#230 = APPROVAL_STATUS ( 'not_yet_approved' ) ;
#231 = CC_DESIGN_PERSON_AND_ORGANIZATION_ASSIGNMENT ( #272, #254, ( #112 ) ) ;
#232 = ORIENTED_EDGE ( 'NONE', *, *, #251, .T. ) ;
#233 = DIRECTION ( 'NONE',  ( 0.0000000000000000000, 1.000000000000000000, 0.0000000000000000000 ) ) ;
#234 = DIRECTION ( 'NONE',  ( 0.0000000000000000000, 1.000000000000000000, 0.0000000000000000000 ) ) ;
#235 = AXIS2_PLACEMENT_3D ( 'NONE', #243, #114, #56 ) ;
#236 = CARTESIAN_POINT ( 'NONE',  ( 3.491481338843132369E-16, -1.224646799147352498E-17, 0.09999999999999996392 ) ) ;
#237 = AXIS2_PLACEMENT_3D ( 'NONE', #265, #244, #44 ) ;
#238 = DIRECTION ( 'NONE',  ( -3.491481338843133355E-15, 1.224646799147352961E-16, -1.000000000000000000 ) ) ;
#239 = VERTEX_POINT ( 'NONE', #149 ) ;
#240 = CYLINDRICAL_SURFACE ( 'NONE', #235, 1.500000000000000222 ) ;
#241 = DIRECTION ( 'NONE',  ( 4.275831445896957731E-31, 1.000000000000000000, 1.224646799147352961E-16 ) ) ;
#242 = CARTESIAN_POINT ( 'NONE',  ( 2.793185071074506684E-14, -8.673617379884035472E-16, 8.000000000000000000 ) ) ;
#243 = CARTESIAN_POINT ( 'NONE',  ( 0.0000000000000000000, 0.0000000000000000000, 0.0000000000000000000 ) ) ;
#244 = DIRECTION ( 'NONE',  ( -3.491481338843133355E-15, 1.224646799147352961E-16, -1.000000000000000000 ) ) ;
#245 = CIRCLE ( 'NONE', #179, 1.500000000000003331 ) ;
#246 = PERSON_AND_ORGANIZATION_ROLE ( 'design_owner' ) ;
#247 = CONICAL_SURFACE ( 'NONE', #94, 1.200000000000003286, 0.7853981633974453924 ) ;
#248 = AXIS2_PLACEMENT_3D ( 'NONE', #104, #238, #132 ) ;
#249 = DIRECTION ( 'NONE',  ( 0.0000000000000000000, -1.000000000000000000, 0.0000000000000000000 ) ) ;
#250 = PLANE ( 'NONE',  #74 ) ;
#251 = EDGE_CURVE ( 'NONE', #34, #34, #209, .T. ) ;
#252 = PERSON_AND_ORGANIZATION ( #64, #183 ) ;
#253 = ORIENTED_EDGE ( 'NONE', *, *, #223, .T. ) ;
#254 = PERSON_AND_ORGANIZATION_ROLE ( 'design_supplier' ) ;
#255 = FACE_OUTER_BOUND ( 'NONE', #210, .T. ) ;
#256 = ADVANCED_FACE ( 'NONE', ( #139, #276 ), #198, .F. ) ;
#257 = ORIENTED_EDGE ( 'NONE', *, *, #26, .F. ) ;
#258 = FACE_OUTER_BOUND ( 'NONE', #12, .T. ) ;
#259 = VERTEX_POINT ( 'NONE', #59 ) ;
#260 = ADVANCED_FACE ( 'NONE', ( #218 ), #150, .F. ) ;
#261 = CARTESIAN_POINT ( 'NONE',  ( 5.104681576181400757E-14, 1.499999999999995559, 14.62038911504761174 ) ) ;
#262 = DESIGN_CONTEXT ( 'detailed design', #184, 'design' ) ;
#263 = CARTESIAN_POINT ( 'NONE',  ( 2.793185071074506684E-14, -9.797174393178823685E-16, 8.000000000000000000 ) ) ;
#264 = DIRECTION ( 'NONE',  ( 4.275831445896957731E-31, 1.000000000000000000, 1.224646799147352714E-16 ) ) ;
#265 = CARTESIAN_POINT ( 'NONE',  ( 3.491481338843132369E-16, -1.224646799147352498E-17, 0.09999999999999996392 ) ) ;
#266 =( LENGTH_UNIT ( ) NAMED_UNIT ( * ) SI_UNIT ( .MILLI., .METRE. ) );
#267 = FACE_OUTER_BOUND ( 'NONE', #214, .T. ) ;
#268 = CONICAL_SURFACE ( 'NONE', #47, 1.499999999999997113, 0.1745329251994260922 ) ;
#269 = CIRCLE ( 'NONE', #145, 0.3634999999999996012 ) ;
#270 = COORDINATED_UNIVERSAL_TIME_OFFSET ( 1, 0, .AHEAD. ) ;
#271 = ORIENTED_EDGE ( 'NONE', *, *, #67, .F. ) ;
#272 = PERSON_AND_ORGANIZATION ( #64, #183 ) ;
#273 = EDGE_CURVE ( 'NONE', #239, #239, #269, .T. ) ;
#274 = EDGE_LOOP ( 'NONE', ( #78 ) ) ;
#275 = EDGE_LOOP ( 'NONE', ( #128 ) ) ;
#276 = FACE_OUTER_BOUND ( 'NONE', #30, .T. ) ;
#277 = DIRECTION ( 'NONE',  ( -3.491481338843133355E-15, 1.224646799147352961E-16, -1.000000000000000000 ) ) ;
#278 = CLOSED_SHELL ( 'NONE', ( #260, #202, #256, #222, #14, #142, #185 ) ) ;
#279 = CARTESIAN_POINT ( 'NONE',  ( 1.326762908760390423E-13, 1.199999999999998845, 38.00000000000000000 ) ) ;
#280 = CARTESIAN_POINT ( 'NONE',  ( 5.104681576181400757E-14, -1.790481273203185902E-15, 14.62038911504761174 ) ) ;
#281 = CARTESIAN_POINT ( 'NONE',  ( 5.104681576181400757E-14, -1.790481273203185902E-15, 14.62038911504761174 ) ) ;
#282 = FACE_OUTER_BOUND ( 'NONE', #32, .T. ) ;
#283 = CARTESIAN_POINT ( 'NONE',  ( 1.326762908760390423E-13, -4.653657836759941152E-15, 38.00000000000000000 ) ) ;
ENDSEC;
END-ISO-10303-21;
