ISO-10303-21;
HEADER;
FILE_DESCRIPTION (( 'STEP AP203' ),
    '1' );
FILE_NAME ('200017.step',
    '2021-11-29T14:49:14',
    ( '' ),
    ( '' ),
    'SwSTEP 2.0',
    'SolidWorks 2019',
    '' );
FILE_SCHEMA (( 'CONFIG_CONTROL_DESIGN' ));
ENDSEC;

DATA;
#1 = APPROVAL_STATUS ( 'not_yet_approved' ) ;
#2 = DATE_AND_TIME ( #92, #142 ) ;
#3 = CC_DESIGN_APPROVAL ( #5, ( #284 ) ) ;
#4 = DIRECTION ( 'NONE',  ( 4.275831445896957731E-31, 1.000000000000000000, 1.224646799147353207E-16 ) ) ;
#5 = APPROVAL ( #91, 'UNSPECIFIED' ) ;
#6 = CC_DESIGN_APPROVAL ( #111, ( #291 ) ) ;
#7 = ORIENTED_EDGE ( 'NONE', *, *, #132, .F. ) ;
#8 = ORIENTED_EDGE ( 'NONE', *, *, #16, .T. ) ;
#9 = FACE_OUTER_BOUND ( 'NONE', #86, .T. ) ;
#10 = CARTESIAN_POINT ( 'NONE',  ( 1.416851402830312905E-14, -4.969645737583982706E-16, 4.058023702053559667 ) ) ;
#11 = ADVANCED_FACE ( 'NONE', ( #192, #220 ), #28, .T. ) ;
#12 = DATE_TIME_ROLE ( 'creation_date' ) ;
#13 = DIRECTION ( 'NONE',  ( -3.491481338843133355E-15, 1.224646799147352961E-16, -1.000000000000000000 ) ) ;
#14 = CARTESIAN_POINT ( 'NONE',  ( 3.491481338843133848E-16, 0.4034999999999995812, 0.1000000000000000056 ) ) ;
#15 = SECURITY_CLASSIFICATION_LEVEL ( 'unclassified' ) ;
#16 = EDGE_CURVE ( 'NONE', #148, #148, #288, .T. ) ;
#17 = AXIS2_PLACEMENT_3D ( 'NONE', #65, #247, #298 ) ;
#18 = PERSON_AND_ORGANIZATION_ROLE ( 'creator' ) ;
#19 = DIRECTION ( 'NONE',  ( -3.491481338843133355E-15, 1.224646799147352961E-16, -1.000000000000000000 ) ) ;
#20 = CLOSED_SHELL ( 'NONE', ( #260, #303, #223, #146 ) ) ;
#21 = COORDINATED_UNIVERSAL_TIME_OFFSET ( 1, 0, .AHEAD. ) ;
#22 = PERSON_AND_ORGANIZATION ( #62, #191 ) ;
#23 = FACE_BOUND ( 'NONE', #145, .T. ) ;
#24 = CYLINDRICAL_SURFACE ( 'NONE', #159, 1.500000000000000222 ) ;
#25 = ADVANCED_FACE ( 'NONE', ( #172, #230 ), #190, .F. ) ;
#26 = DIRECTION ( 'NONE',  ( 0.0000000000000000000, -1.000000000000000000, 0.0000000000000000000 ) ) ;
#27 = EDGE_LOOP ( 'NONE', ( #166 ) ) ;
#28 = CONICAL_SURFACE ( 'NONE', #195, 0.3699999999999994960, 0.5235987755982914882 ) ;
#29 = APPROVAL_PERSON_ORGANIZATION ( #286, #235, #179 ) ;
#30 = PLANE ( 'NONE',  #75 ) ;
#31 = CC_DESIGN_PERSON_AND_ORGANIZATION_ASSIGNMENT ( #22, #185, ( #291 ) ) ;
#32 = EDGE_LOOP ( 'NONE', ( #180 ) ) ;
#33 = AXIS2_PLACEMENT_3D ( 'NONE', #112, #264, #114 ) ;
#34 = DIRECTION ( 'NONE',  ( 3.491481338843133355E-15, -1.224646799147352961E-16, 1.000000000000000000 ) ) ;
#35 = DIRECTION ( 'NONE',  ( 4.275831445896957731E-31, 1.000000000000000000, 1.224646799147352961E-16 ) ) ;
#36 = EDGE_CURVE ( 'NONE', #301, #301, #226, .T. ) ;
#37 = PERSON_AND_ORGANIZATION_ROLE ( 'design_supplier' ) ;
#38 = AXIS2_PLACEMENT_3D ( 'NONE', #270, #98, #211 ) ;
#39 = APPROVAL_DATE_TIME ( #219, #235 ) ;
#40 = CONICAL_SURFACE ( 'NONE', #110, 0.4034999999999995812, 0.5235987755982927094 ) ;
#41 = CALENDAR_DATE ( 2021, 29, 11 ) ;
#42 = PRODUCT_DEFINITION ( 'UNKNOWN', '', #291, #240 ) ;
#43 = DIRECTION ( 'NONE',  ( 0.0000000000000000000, 0.0000000000000000000, 1.000000000000000000 ) ) ;
#44 = MANIFOLD_SOLID_BREP ( 'Corps-Déplacer/Copier1[2]', #20 ) ;
#45 = MECHANICAL_CONTEXT ( 'NONE', #134, 'mechanical' ) ;
#46 = CIRCLE ( 'NONE', #69, 0.4035000000000000253 ) ;
#47 = PERSON_AND_ORGANIZATION ( #62, #191 ) ;
#48 = DIRECTION ( 'NONE',  ( -3.491481338843133355E-15, 1.224646799147352961E-16, -1.000000000000000000 ) ) ;
#49 = CARTESIAN_POINT ( 'NONE',  ( 0.0000000000000000000, 0.0000000000000000000, 0.0000000000000000000 ) ) ;
#50 = LOCAL_TIME ( 15, 49, 14.00000000000000000, #97 ) ;
#51 = PERSON_AND_ORGANIZATION ( #62, #191 ) ;
#52 = DIRECTION ( 'NONE',  ( -3.491481338843133355E-15, 1.224646799147352961E-16, -1.000000000000000000 ) ) ;
#53 = CARTESIAN_POINT ( 'NONE',  ( 2.914442945444142440E-14, -1.022248976309395884E-15, 8.347296355333845952 ) ) ;
#54 = FACE_OUTER_BOUND ( 'NONE', #122, .T. ) ;
#55 = EDGE_LOOP ( 'NONE', ( #257 ) ) ;
#56 = AXIS2_PLACEMENT_3D ( 'NONE', #109, #84, #77 ) ;
#57 = AXIS2_PLACEMENT_3D ( 'NONE', #269, #52, #266 ) ;
#58 = COORDINATED_UNIVERSAL_TIME_OFFSET ( 1, 0, .AHEAD. ) ;
#59 = AXIS2_PLACEMENT_3D ( 'NONE', #131, #201, #280 ) ;
#60 = CC_DESIGN_PERSON_AND_ORGANIZATION_ASSIGNMENT ( #51, #37, ( #291 ) ) ;
#61 = CARTESIAN_POINT ( 'NONE',  ( 1.326762908760390423E-13, 1.199999999999998845, 38.00000000000000000 ) ) ;
#62 = PERSON ( 'UNSPECIFIED', 'UNSPECIFIED', 'UNSPECIFIED', ('UNSPECIFIED'), ('UNSPECIFIED'), ('UNSPECIFIED') ) ;
#63 = CARTESIAN_POINT ( 'NONE',  ( 0.0000000000000000000, 0.0000000000000000000, 0.0000000000000000000 ) ) ;
#64 = EDGE_LOOP ( 'NONE', ( #237 ) ) ;
#65 = CARTESIAN_POINT ( 'NONE',  ( -1.478432744789616716E-31, 5.185644008801001613E-33, -4.234399675409635768E-17 ) ) ;
#66 =( LENGTH_UNIT ( ) NAMED_UNIT ( * ) SI_UNIT ( .MILLI., .METRE. ) );
#67 = FACE_OUTER_BOUND ( 'NONE', #213, .T. ) ;
#68 = CARTESIAN_POINT ( 'NONE',  ( 5.091810812665067066E-14, -1.785966817070338911E-15, 14.58352578322010018 ) ) ;
#69 = AXIS2_PLACEMENT_3D ( 'NONE', #90, #48, #184 ) ;
#70 = ORIENTED_EDGE ( 'NONE', *, *, #189, .F. ) ;
#71 = EDGE_LOOP ( 'NONE', ( #163 ) ) ;
#72 = VERTEX_POINT ( 'NONE', #221 ) ;
#73 = CALENDAR_DATE ( 2021, 29, 11 ) ;
#74 = FACE_OUTER_BOUND ( 'NONE', #155, .T. ) ;
#75 = AXIS2_PLACEMENT_3D ( 'NONE', #124, #243, #104 ) ;
#76 = EDGE_CURVE ( 'NONE', #252, #252, #129, .T. ) ;
#77 = DIRECTION ( 'NONE',  ( 4.275831445896957731E-31, 1.000000000000000000, 1.224646799147352961E-16 ) ) ;
#78 = DIRECTION ( 'NONE',  ( 3.491481338843133355E-15, -1.224646799147352961E-16, 1.000000000000000000 ) ) ;
#79 = ORIENTED_EDGE ( 'NONE', *, *, #153, .F. ) ;
#80 = DIRECTION ( 'NONE',  ( 0.0000000000000000000, 1.000000000000000000, 0.0000000000000000000 ) ) ;
#81 = CC_DESIGN_PERSON_AND_ORGANIZATION_ASSIGNMENT ( #250, #18, ( #42 ) ) ;
#82 = PERSON_AND_ORGANIZATION ( #62, #191 ) ;
#83 = CC_DESIGN_SECURITY_CLASSIFICATION ( #284, ( #291 ) ) ;
#84 = DIRECTION ( 'NONE',  ( -3.491481338843133355E-15, 1.224646799147352961E-16, -1.000000000000000000 ) ) ;
#85 = COORDINATED_UNIVERSAL_TIME_OFFSET ( 1, 0, .AHEAD. ) ;
#86 = EDGE_LOOP ( 'NONE', ( #205 ) ) ;
#87 = DIRECTION ( 'NONE',  ( 1.000000000000000000, 0.0000000000000000000, 0.0000000000000000000 ) ) ;
#88 = EDGE_LOOP ( 'NONE', ( #242 ) ) ;
#89 = LOCAL_TIME ( 15, 49, 14.00000000000000000, #85 ) ;
#90 = CARTESIAN_POINT ( 'NONE',  ( 1.396592535537253342E-14, -4.898587196589411843E-16, 4.000000000000000000 ) ) ;
#91 = APPROVAL_STATUS ( 'not_yet_approved' ) ;
#92 = CALENDAR_DATE ( 2021, 29, 11 ) ;
#93 = DIRECTION ( 'NONE',  ( -3.491481338843133355E-15, 1.224646799147352961E-16, -1.000000000000000000 ) ) ;
#94 = VERTEX_POINT ( 'NONE', #138 ) ;
#95 = FACE_OUTER_BOUND ( 'NONE', #88, .T. ) ;
#96 = EDGE_LOOP ( 'NONE', ( #262 ) ) ;
#97 = COORDINATED_UNIVERSAL_TIME_OFFSET ( 1, 0, .AHEAD. ) ;
#98 = DIRECTION ( 'NONE',  ( 3.491481338843133355E-15, -1.224646799147352961E-16, 1.000000000000000000 ) ) ;
#99 = LOCAL_TIME ( 15, 49, 14.00000000000000000, #21 ) ;
#100 = ORIENTED_EDGE ( 'NONE', *, *, #267, .F. ) ;
#101 = PLANE ( 'NONE',  #152 ) ;
#102 = DIRECTION ( 'NONE',  ( -3.491481338843133355E-15, 1.224646799147352961E-16, -1.000000000000000000 ) ) ;
#103 = AXIS2_PLACEMENT_3D ( 'NONE', #128, #225, #174 ) ;
#104 = DIRECTION ( 'NONE',  ( 4.275831445896957731E-31, 1.000000000000000000, 1.224646799147352961E-16 ) ) ;
#105 = APPROVAL_PERSON_ORGANIZATION ( #249, #111, #197 ) ;
#106 = EDGE_LOOP ( 'NONE', ( #248 ) ) ;
#107 = DIRECTION ( 'NONE',  ( -4.773060580885347804E-31, -1.000000000000000000, -1.343497115843253472E-16 ) ) ;
#108 = VERTEX_POINT ( 'NONE', #202 ) ;
#109 = CARTESIAN_POINT ( 'NONE',  ( 2.793185071074506684E-14, -8.673617379884035472E-16, 8.000000000000000000 ) ) ;
#110 = AXIS2_PLACEMENT_3D ( 'NONE', #224, #78, #107 ) ;
#111 = APPROVAL ( #279, 'UNSPECIFIED' ) ;
#112 = CARTESIAN_POINT ( 'NONE',  ( 2.793185071074506684E-14, -9.797174393178823685E-16, 8.000000000000000000 ) ) ;
#113 = CC_DESIGN_PERSON_AND_ORGANIZATION_ASSIGNMENT ( #265, #232, ( #178 ) ) ;
#114 = DIRECTION ( 'NONE',  ( 0.0000000000000000000, 1.000000000000000000, 0.0000000000000000000 ) ) ;
#115 = CARTESIAN_POINT ( 'NONE',  ( 1.316288464743861212E-13, -4.616918432785520292E-15, 37.69999999999999574 ) ) ;
#116 = DIRECTION ( 'NONE',  ( 0.0000000000000000000, 1.000000000000000000, 0.0000000000000000000 ) ) ;
#117 = DATE_TIME_ROLE ( 'classification_date' ) ;
#118 = EDGE_LOOP ( 'NONE', ( #79 ) ) ;
#119 = CALENDAR_DATE ( 2021, 29, 11 ) ;
#120 = CARTESIAN_POINT ( 'NONE',  ( 1.396592535537253342E-14, 0.4034999999999995812, 4.000000000000000000 ) ) ;
#121 = FACE_OUTER_BOUND ( 'NONE', #96, .T. ) ;
#122 = EDGE_LOOP ( 'NONE', ( #70 ) ) ;
#123 = FACE_OUTER_BOUND ( 'NONE', #32, .T. ) ;
#124 = CARTESIAN_POINT ( 'NONE',  ( 1.326762908760390423E-13, 8.998558695971099120E-33, 38.00000000000000000 ) ) ;
#125 = ADVANCED_FACE ( 'NONE', ( #258, #256 ), #204, .T. ) ;
#126 = CIRCLE ( 'NONE', #208, 0.4003844939755807908 ) ;
#127 = FACE_BOUND ( 'NONE', #55, .T. ) ;
#128 = CARTESIAN_POINT ( 'NONE',  ( 5.091810812665067066E-14, -1.785966817070338911E-15, 14.58352578322010018 ) ) ;
#129 = CIRCLE ( 'NONE', #59, 0.4034999999999995812 ) ;
#130 = ORIENTED_EDGE ( 'NONE', *, *, #183, .T. ) ;
#131 = CARTESIAN_POINT ( 'NONE',  ( 3.491481338843131876E-16, -1.224646799147352344E-17, 0.09999999999999995004 ) ) ;
#132 = EDGE_CURVE ( 'NONE', #108, #108, #136, .T. ) ;
#133 = CIRCLE ( 'NONE', #17, 0.3457649730810378186 ) ;
#134 = APPLICATION_CONTEXT ( 'configuration controlled 3d designs of mechanical parts and assemblies' ) ;
#135 = DIRECTION ( 'NONE',  ( -3.491481338843133355E-15, 1.224646799147352961E-16, -1.000000000000000000 ) ) ;
#136 = CIRCLE ( 'NONE', #103, 1.499999999999997113 ) ;
#137 = APPROVAL_PERSON_ORGANIZATION ( #47, #5, #157 ) ;
#138 = CARTESIAN_POINT ( 'NONE',  ( 2.914442945444142440E-14, 0.4003844939755797916, 8.347296355333845952 ) ) ;
#139 = CARTESIAN_POINT ( 'NONE',  ( 1.316288464743861212E-13, 1.499999999999998668, 37.69999999999999574 ) ) ;
#140 = FACE_BOUND ( 'NONE', #118, .T. ) ;
#141 = EDGE_LOOP ( 'NONE', ( #287 ) ) ;
#142 = LOCAL_TIME ( 15, 49, 14.00000000000000000, #58 ) ;
#143 = DIRECTION ( 'NONE',  ( 3.491481338843133355E-15, -1.224646799147352961E-16, 1.000000000000000000 ) ) ;
#144 = CARTESIAN_POINT ( 'NONE',  ( 1.416851402830312905E-14, -4.969645737583982706E-16, 4.058023702053559667 ) ) ;
#145 = EDGE_LOOP ( 'NONE', ( #8 ) ) ;
#146 = ADVANCED_FACE ( 'NONE', ( #54 ), #212, .T. ) ;
#147 = EDGE_LOOP ( 'NONE', ( #7 ) ) ;
#148 = VERTEX_POINT ( 'NONE', #61 ) ;
#149 = DIRECTION ( 'NONE',  ( -4.275831445896957731E-31, -1.000000000000000000, -1.224646799147352961E-16 ) ) ;
#150 = PRODUCT_RELATED_PRODUCT_CATEGORY ( 'detail', '', ( #178 ) ) ;
#151 = DIRECTION ( 'NONE',  ( 0.0000000000000000000, 1.000000000000000000, 0.0000000000000000000 ) ) ;
#152 = AXIS2_PLACEMENT_3D ( 'NONE', #194, #143, #168 ) ;
#153 = EDGE_CURVE ( 'NONE', #94, #94, #126, .T. ) ;
#154 = COORDINATED_UNIVERSAL_TIME_OFFSET ( 1, 0, .AHEAD. ) ;
#155 = EDGE_LOOP ( 'NONE', ( #200 ) ) ;
#156 = APPLICATION_PROTOCOL_DEFINITION ( 'international standard', 'config_control_design', 1994, #290 ) ;
#157 = APPROVAL_ROLE ( '' ) ;
#158 = DIRECTION ( 'NONE',  ( 0.0000000000000000000, 1.000000000000000000, 0.0000000000000000000 ) ) ;
#159 = AXIS2_PLACEMENT_3D ( 'NONE', #49, #236, #4 ) ;
#160 = CYLINDRICAL_SURFACE ( 'NONE', #57, 0.4034999999999998033 ) ;
#161 = VERTEX_POINT ( 'NONE', #218 ) ;
#162 = DIRECTION ( 'NONE',  ( -3.491481338843133355E-15, 1.224646799147352961E-16, -1.000000000000000000 ) ) ;
#163 = ORIENTED_EDGE ( 'NONE', *, *, #210, .F. ) ;
#164 = ADVANCED_FACE ( 'NONE', ( #188, #121 ), #24, .T. ) ;
#165 = PLANE ( 'NONE',  #302 ) ;
#166 = ORIENTED_EDGE ( 'NONE', *, *, #76, .T. ) ;
#167 = ADVANCED_FACE ( 'NONE', ( #140, #95 ), #175, .T. ) ;
#168 = DIRECTION ( 'NONE',  ( -4.275831445896957731E-31, -1.000000000000000000, -1.224646799147352961E-16 ) ) ;
#169 = DATE_AND_TIME ( #231, #99 ) ;
#170 = EDGE_LOOP ( 'NONE', ( #130 ) ) ;
#171 = ADVANCED_FACE ( 'NONE', ( #273, #23 ), #176, .T. ) ;
#172 = FACE_OUTER_BOUND ( 'NONE', #141, .T. ) ;
#173 = PERSON_AND_ORGANIZATION_ROLE ( 'classification_officer' ) ;
#174 = DIRECTION ( 'NONE',  ( 0.0000000000000000000, 1.000000000000000000, 0.0000000000000000000 ) ) ;
#175 = CONICAL_SURFACE ( 'NONE', #289, 1.499999999999997113, 0.1745329251994260089 ) ;
#176 = CONICAL_SURFACE ( 'NONE', #222, 1.200000000000003286, 0.7853981633974453924 ) ;
#177 = DIRECTION ( 'NONE',  ( -3.491481338843133355E-15, 1.224646799147352961E-16, -1.000000000000000000 ) ) ;
#178 = PRODUCT ( '200017', '200017', '', ( #45 ) ) ;
#179 = APPROVAL_ROLE ( '' ) ;
#180 = ORIENTED_EDGE ( 'NONE', *, *, #244, .T. ) ;
#181 = AXIS2_PLACEMENT_3D ( 'NONE', #297, #278, #80 ) ;
#182 = AXIS2_PLACEMENT_3D ( 'NONE', #115, #93, #158 ) ;
#183 = EDGE_CURVE ( 'NONE', #72, #72, #295, .T. ) ;
#184 = DIRECTION ( 'NONE',  ( 0.0000000000000000000, 1.000000000000000000, 0.0000000000000000000 ) ) ;
#185 = PERSON_AND_ORGANIZATION_ROLE ( 'creator' ) ;
#186 = ADVANCED_BREP_SHAPE_REPRESENTATION ( '200017', ( #251, #44, #263 ), #227 ) ;
#187 = APPROVAL_DATE_TIME ( #2, #111 ) ;
#188 = FACE_OUTER_BOUND ( 'NONE', #147, .T. ) ;
#189 = EDGE_CURVE ( 'NONE', #272, #272, #46, .T. ) ;
#190 = TOROIDAL_SURFACE ( 'NONE', #56, 2.369999999999999662, 2.000000000000000000 ) ;
#191 = ORGANIZATION ( 'UNSPECIFIED', 'UNSPECIFIED', '' ) ;
#192 = FACE_OUTER_BOUND ( 'NONE', #296, .T. ) ;
#193 = CC_DESIGN_DATE_AND_TIME_ASSIGNMENT ( #169, #12, ( #42 ) ) ;
#194 = CARTESIAN_POINT ( 'NONE',  ( -7.392163723948083578E-32, 2.592822004400500807E-33, -2.117199837704817884E-17 ) ) ;
#195 = AXIS2_PLACEMENT_3D ( 'NONE', #10, #102, #196 ) ;
#196 = DIRECTION ( 'NONE',  ( 0.0000000000000000000, 1.000000000000000000, 0.0000000000000000000 ) ) ;
#197 = APPROVAL_ROLE ( '' ) ;
#198 = AXIS2_PLACEMENT_3D ( 'NONE', #144, #13, #199 ) ;
#199 = DIRECTION ( 'NONE',  ( 0.0000000000000000000, 1.000000000000000000, 0.0000000000000000000 ) ) ;
#200 = ORIENTED_EDGE ( 'NONE', *, *, #36, .T. ) ;
#201 = DIRECTION ( 'NONE',  ( -3.491481338843133355E-15, 1.224646799147352961E-16, -1.000000000000000000 ) ) ;
#202 = CARTESIAN_POINT ( 'NONE',  ( 5.091810812665067066E-14, 1.499999999999995559, 14.58352578322010018 ) ) ;
#203 = CC_DESIGN_APPROVAL ( #235, ( #42 ) ) ;
#204 = CYLINDRICAL_SURFACE ( 'NONE', #268, 0.3699999999999996625 ) ;
#205 = ORIENTED_EDGE ( 'NONE', *, *, #16, .F. ) ;
#206 = FACE_OUTER_BOUND ( 'NONE', #64, .T. ) ;
#207 = CC_DESIGN_DATE_AND_TIME_ASSIGNMENT ( #229, #117, ( #284 ) ) ;
#208 = AXIS2_PLACEMENT_3D ( 'NONE', #53, #162, #116 ) ;
#209 = DATE_AND_TIME ( #119, #50 ) ;
#210 = EDGE_CURVE ( 'NONE', #246, #246, #277, .T. ) ;
#211 = DIRECTION ( 'NONE',  ( -4.275831445896957731E-31, -1.000000000000000000, -1.224646799147352961E-16 ) ) ;
#212 = PLANE ( 'NONE',  #38 ) ;
#213 = EDGE_LOOP ( 'NONE', ( #228 ) ) ;
#214 = LOCAL_TIME ( 15, 49, 14.00000000000000000, #154 ) ;
#215 = UNCERTAINTY_MEASURE_WITH_UNIT (LENGTH_MEASURE( 1.000000000000000082E-05 ), #66, 'distance_accuracy_value', 'NONE');
#216 =( NAMED_UNIT ( * ) SI_UNIT ( $, .STERADIAN. ) SOLID_ANGLE_UNIT ( ) );
#217 = EDGE_LOOP ( 'NONE', ( #100 ) ) ;
#218 = CARTESIAN_POINT ( 'NONE',  ( 1.416851402830312905E-14, 0.3699999999999989964, 4.058023702053559667 ) ) ;
#219 = DATE_AND_TIME ( #73, #89 ) ;
#220 = FACE_BOUND ( 'NONE', #276, .T. ) ;
#221 = CARTESIAN_POINT ( 'NONE',  ( 2.793185071074506684E-14, 0.3699999999999987743, 8.000000000000000000 ) ) ;
#222 = AXIS2_PLACEMENT_3D ( 'NONE', #294, #135, #261 ) ;
#223 = ADVANCED_FACE ( 'NONE', ( #67, #206 ), #160, .T. ) ;
#224 = CARTESIAN_POINT ( 'NONE',  ( 3.491481338843131876E-16, -1.224646799147352344E-17, 0.09999999999999995004 ) ) ;
#225 = DIRECTION ( 'NONE',  ( -3.491481338843133355E-15, 1.224646799147352961E-16, -1.000000000000000000 ) ) ;
#226 = CIRCLE ( 'NONE', #275, 0.4035000000000000253 ) ;
#227 =( GEOMETRIC_REPRESENTATION_CONTEXT ( 3 ) GLOBAL_UNCERTAINTY_ASSIGNED_CONTEXT ( ( #215 ) ) GLOBAL_UNIT_ASSIGNED_CONTEXT ( ( #66, #234, #216 ) ) REPRESENTATION_CONTEXT ( 'NONE', 'WORKASPACE' ) );
#228 = ORIENTED_EDGE ( 'NONE', *, *, #76, .F. ) ;
#229 = DATE_AND_TIME ( #41, #214 ) ;
#230 = FACE_OUTER_BOUND ( 'NONE', #106, .T. ) ;
#231 = CALENDAR_DATE ( 2021, 29, 11 ) ;
#232 = PERSON_AND_ORGANIZATION_ROLE ( 'design_owner' ) ;
#233 = SHAPE_DEFINITION_REPRESENTATION ( #300, #186 ) ;
#234 =( NAMED_UNIT ( * ) PLANE_ANGLE_UNIT ( ) SI_UNIT ( $, .RADIAN. ) );
#235 = APPROVAL ( #1, 'UNSPECIFIED' ) ;
#236 = DIRECTION ( 'NONE',  ( -3.491481338843133355E-15, 1.224646799147352961E-16, -1.000000000000000000 ) ) ;
#237 = ORIENTED_EDGE ( 'NONE', *, *, #189, .T. ) ;
#238 = CARTESIAN_POINT ( 'NONE',  ( 0.0000000000000000000, 0.3457649730810378186, 0.0000000000000000000 ) ) ;
#239 = DIRECTION ( 'NONE',  ( 3.491481338843133355E-15, -1.224646799147352961E-16, 1.000000000000000000 ) ) ;
#240 = DESIGN_CONTEXT ( 'detailed design', #290, 'design' ) ;
#241 = VERTEX_POINT ( 'NONE', #238 ) ;
#242 = ORIENTED_EDGE ( 'NONE', *, *, #132, .T. ) ;
#243 = DIRECTION ( 'NONE',  ( -3.491481338843133355E-15, 1.224646799147352961E-16, -1.000000000000000000 ) ) ;
#244 = EDGE_CURVE ( 'NONE', #241, #241, #133, .T. ) ;
#245 = ORIENTED_EDGE ( 'NONE', *, *, #36, .F. ) ;
#246 = VERTEX_POINT ( 'NONE', #139 ) ;
#247 = DIRECTION ( 'NONE',  ( -3.491481338843133355E-15, 1.224646799147352961E-16, -1.000000000000000000 ) ) ;
#248 = ORIENTED_EDGE ( 'NONE', *, *, #153, .T. ) ;
#249 = PERSON_AND_ORGANIZATION ( #62, #191 ) ;
#250 = PERSON_AND_ORGANIZATION ( #62, #191 ) ;
#251 = MANIFOLD_SOLID_BREP ( 'Corps-Déplacer/Copier1[1]', #283 ) ;
#252 = VERTEX_POINT ( 'NONE', #14 ) ;
#253 = ADVANCED_FACE ( 'NONE', ( #9 ), #30, .F. ) ;
#254 = CIRCLE ( 'NONE', #198, 0.3699999999999994960 ) ;
#255 = CARTESIAN_POINT ( 'NONE',  ( 1.396592535537253342E-14, 0.4034999999999995812, 4.000000000000000000 ) ) ;
#256 = FACE_OUTER_BOUND ( 'NONE', #170, .T. ) ;
#257 = ORIENTED_EDGE ( 'NONE', *, *, #244, .F. ) ;
#258 = FACE_OUTER_BOUND ( 'NONE', #217, .T. ) ;
#259 = APPLICATION_PROTOCOL_DEFINITION ( 'international standard', 'config_control_design', 1994, #134 ) ;
#260 = ADVANCED_FACE ( 'NONE', ( #123 ), #101, .F. ) ;
#261 = DIRECTION ( 'NONE',  ( 0.0000000000000000000, 1.000000000000000000, 0.0000000000000000000 ) ) ;
#262 = ORIENTED_EDGE ( 'NONE', *, *, #210, .T. ) ;
#263 = AXIS2_PLACEMENT_3D ( 'NONE', #285, #43, #87 ) ;
#264 = DIRECTION ( 'NONE',  ( -3.491481338843133355E-15, 1.224646799147352961E-16, -1.000000000000000000 ) ) ;
#265 = PERSON_AND_ORGANIZATION ( #62, #191 ) ;
#266 = DIRECTION ( 'NONE',  ( 4.275831445896957731E-31, 1.000000000000000000, 1.224646799147352961E-16 ) ) ;
#267 = EDGE_CURVE ( 'NONE', #161, #161, #254, .T. ) ;
#268 = AXIS2_PLACEMENT_3D ( 'NONE', #63, #177, #35 ) ;
#269 = CARTESIAN_POINT ( 'NONE',  ( 0.0000000000000000000, 0.0000000000000000000, 0.0000000000000000000 ) ) ;
#270 = CARTESIAN_POINT ( 'NONE',  ( 1.396592535537253342E-14, 3.025765361520289157E-33, 4.000000000000000000 ) ) ;
#271 = ORIENTED_EDGE ( 'NONE', *, *, #267, .T. ) ;
#272 = VERTEX_POINT ( 'NONE', #120 ) ;
#273 = FACE_OUTER_BOUND ( 'NONE', #71, .T. ) ;
#274 = ADVANCED_FACE ( 'NONE', ( #74 ), #165, .F. ) ;
#275 = AXIS2_PLACEMENT_3D ( 'NONE', #282, #19, #151 ) ;
#276 = EDGE_LOOP ( 'NONE', ( #271 ) ) ;
#277 = CIRCLE ( 'NONE', #182, 1.500000000000003331 ) ;
#278 = DIRECTION ( 'NONE',  ( -3.491481338843133355E-15, 1.224646799147352961E-16, -1.000000000000000000 ) ) ;
#279 = APPROVAL_STATUS ( 'not_yet_approved' ) ;
#280 = DIRECTION ( 'NONE',  ( 4.773060580885347804E-31, 1.000000000000000000, 1.343497115843253472E-16 ) ) ;
#281 = FACE_OUTER_BOUND ( 'NONE', #27, .T. ) ;
#282 = CARTESIAN_POINT ( 'NONE',  ( 1.396592535537253342E-14, -4.898587196589411843E-16, 4.000000000000000000 ) ) ;
#283 = CLOSED_SHELL ( 'NONE', ( #274, #11, #125, #25, #167, #164, #171, #253 ) ) ;
#284 = SECURITY_CLASSIFICATION ( '', '', #15 ) ;
#285 = CARTESIAN_POINT ( 'NONE',  ( 0.0000000000000000000, 0.0000000000000000000, 0.0000000000000000000 ) ) ;
#286 = PERSON_AND_ORGANIZATION ( #62, #191 ) ;
#287 = ORIENTED_EDGE ( 'NONE', *, *, #183, .F. ) ;
#288 = CIRCLE ( 'NONE', #181, 1.200000000000003286 ) ;
#289 = AXIS2_PLACEMENT_3D ( 'NONE', #68, #239, #26 ) ;
#290 = APPLICATION_CONTEXT ( 'configuration controlled 3d designs of mechanical parts and assemblies' ) ;
#291 = PRODUCT_DEFINITION_FORMATION_WITH_SPECIFIED_SOURCE ( 'ANY', '', #178, .NOT_KNOWN. ) ;
#292 = APPROVAL_DATE_TIME ( #209, #5 ) ;
#293 = CC_DESIGN_PERSON_AND_ORGANIZATION_ASSIGNMENT ( #82, #173, ( #284 ) ) ;
#294 = CARTESIAN_POINT ( 'NONE',  ( 1.326762908760390423E-13, -4.653657836759941152E-15, 38.00000000000000000 ) ) ;
#295 = CIRCLE ( 'NONE', #33, 0.3699999999999997735 ) ;
#296 = EDGE_LOOP ( 'NONE', ( #245 ) ) ;
#297 = CARTESIAN_POINT ( 'NONE',  ( 1.326762908760390423E-13, -4.653657836759941152E-15, 38.00000000000000000 ) ) ;
#298 = DIRECTION ( 'NONE',  ( 4.275831445896957731E-31, 1.000000000000000000, 1.224646799147352714E-16 ) ) ;
#299 = CARTESIAN_POINT ( 'NONE',  ( 1.396592535537253342E-14, 3.025765361520289157E-33, 4.000000000000000000 ) ) ;
#300 = PRODUCT_DEFINITION_SHAPE ( 'NONE', 'NONE',  #42 ) ;
#301 = VERTEX_POINT ( 'NONE', #255 ) ;
#302 = AXIS2_PLACEMENT_3D ( 'NONE', #299, #34, #149 ) ;
#303 = ADVANCED_FACE ( 'NONE', ( #127, #281 ), #40, .T. ) ;
ENDSEC;
END-ISO-10303-21;
