ISO-10303-21;
HEADER;
FILE_DESCRIPTION (( 'STEP AP203' ),
    '1' );
FILE_NAME ('200016.step',
    '2021-11-29T14:49:14',
    ( '' ),
    ( '' ),
    'SwSTEP 2.0',
    'SolidWorks 2019',
    '' );
FILE_SCHEMA (( 'CONFIG_CONTROL_DESIGN' ));
ENDSEC;

DATA;
#1 =( NAMED_UNIT ( * ) SI_UNIT ( $, .STERADIAN. ) SOLID_ANGLE_UNIT ( ) );
#2 = DIRECTION ( 'NONE',  ( -3.491481338843133355E-15, 1.224646799147352961E-16, -1.000000000000000000 ) ) ;
#3 = CIRCLE ( 'NONE', #267, 0.3784999999999997811 ) ;
#4 = APPROVAL ( #85, 'UNSPECIFIED' ) ;
#5 = VERTEX_POINT ( 'NONE', #241 ) ;
#6 = DIRECTION ( 'NONE',  ( -3.491481338843133355E-15, 1.224646799147352961E-16, -1.000000000000000000 ) ) ;
#7 = ORIENTED_EDGE ( 'NONE', *, *, #187, .F. ) ;
#8 = FACE_BOUND ( 'NONE', #131, .T. ) ;
#9 = EDGE_CURVE ( 'NONE', #159, #159, #279, .T. ) ;
#10 = EDGE_LOOP ( 'NONE', ( #64 ) ) ;
#11 = AXIS2_PLACEMENT_3D ( 'NONE', #76, #273, #108 ) ;
#12 = LOCAL_TIME ( 15, 49, 14.00000000000000000, #281 ) ;
#13 = EDGE_CURVE ( 'NONE', #253, #253, #46, .T. ) ;
#14 = CARTESIAN_POINT ( 'NONE',  ( -9.463679131915806782E-32, 0.3207649730810375743, -2.710505431213761085E-17 ) ) ;
#15 = DIRECTION ( 'NONE',  ( -3.491481338843133355E-15, 1.224646799147352961E-16, -1.000000000000000000 ) ) ;
#16 = APPROVAL_ROLE ( '' ) ;
#17 = CARTESIAN_POINT ( 'NONE',  ( 1.396592535537253342E-14, 0.3784999999999992815, 4.000000000000000000 ) ) ;
#18 = AXIS2_PLACEMENT_3D ( 'NONE', #20, #49, #52 ) ;
#19 = DIRECTION ( 'NONE',  ( 0.0000000000000000000, 1.000000000000000000, 0.0000000000000000000 ) ) ;
#20 = CARTESIAN_POINT ( 'NONE',  ( 1.326762908760390423E-13, 8.998558695971099120E-33, 38.00000000000000000 ) ) ;
#21 = ORIENTED_EDGE ( 'NONE', *, *, #179, .T. ) ;
#22 = EDGE_LOOP ( 'NONE', ( #59 ) ) ;
#23 = CARTESIAN_POINT ( 'NONE',  ( 1.396592535537253342E-14, 2.838295388687555246E-33, 4.000000000000000000 ) ) ;
#24 = CONICAL_SURFACE ( 'NONE', #166, 0.3784999999999993370, 0.5235987755982927094 ) ;
#25 =( GEOMETRIC_REPRESENTATION_CONTEXT ( 3 ) GLOBAL_UNCERTAINTY_ASSIGNED_CONTEXT ( ( #55 ) ) GLOBAL_UNIT_ASSIGNED_CONTEXT ( ( #303, #234, #1 ) ) REPRESENTATION_CONTEXT ( 'NONE', 'WORKASPACE' ) );
#26 = CALENDAR_DATE ( 2021, 29, 11 ) ;
#27 = CALENDAR_DATE ( 2021, 29, 11 ) ;
#28 = EDGE_CURVE ( 'NONE', #110, #110, #212, .T. ) ;
#29 = DIRECTION ( 'NONE',  ( -4.275831445896957731E-31, -1.000000000000000000, -1.224646799147352961E-16 ) ) ;
#30 = AXIS2_PLACEMENT_3D ( 'NONE', #248, #216, #286 ) ;
#31 = AXIS2_PLACEMENT_3D ( 'NONE', #34, #204, #294 ) ;
#32 = PERSON_AND_ORGANIZATION ( #48, #268 ) ;
#33 = EDGE_LOOP ( 'NONE', ( #21 ) ) ;
#34 = CARTESIAN_POINT ( 'NONE',  ( 0.0000000000000000000, 0.0000000000000000000, 0.0000000000000000000 ) ) ;
#35 = COORDINATED_UNIVERSAL_TIME_OFFSET ( 1, 0, .AHEAD. ) ;
#36 = ORIENTED_EDGE ( 'NONE', *, *, #28, .T. ) ;
#37 = AXIS2_PLACEMENT_3D ( 'NONE', #178, #56, #103 ) ;
#38 = DATE_AND_TIME ( #193, #122 ) ;
#39 = CARTESIAN_POINT ( 'NONE',  ( 3.491481338843132369E-16, 0.3784999999999993370, 0.09999999999999996392 ) ) ;
#40 = MANIFOLD_SOLID_BREP ( 'Corps-Déplacer/Copier1[1]', #238 ) ;
#41 = CIRCLE ( 'NONE', #53, 0.3784999999999997811 ) ;
#42 = FACE_OUTER_BOUND ( 'NONE', #249, .T. ) ;
#43 = ADVANCED_FACE ( 'NONE', ( #71 ), #264, .F. ) ;
#44 = CARTESIAN_POINT ( 'NONE',  ( 2.914442945444142440E-14, -1.022248976309395884E-15, 8.347296355333845952 ) ) ;
#45 = CARTESIAN_POINT ( 'NONE',  ( 0.0000000000000000000, 0.0000000000000000000, 0.0000000000000000000 ) ) ;
#46 = CIRCLE ( 'NONE', #239, 1.200000000000003286 ) ;
#47 = DIRECTION ( 'NONE',  ( 0.0000000000000000000, 1.000000000000000000, 0.0000000000000000000 ) ) ;
#48 = PERSON ( 'UNSPECIFIED', 'UNSPECIFIED', 'UNSPECIFIED', ('UNSPECIFIED'), ('UNSPECIFIED'), ('UNSPECIFIED') ) ;
#49 = DIRECTION ( 'NONE',  ( -3.491481338843133355E-15, 1.224646799147352961E-16, -1.000000000000000000 ) ) ;
#50 = DIRECTION ( 'NONE',  ( -3.491481338843133355E-15, 1.224646799147352961E-16, -1.000000000000000000 ) ) ;
#51 = ADVANCED_FACE ( 'NONE', ( #146 ), #192, .F. ) ;
#52 = DIRECTION ( 'NONE',  ( 4.275831445896957731E-31, 1.000000000000000000, 1.224646799147352961E-16 ) ) ;
#53 = AXIS2_PLACEMENT_3D ( 'NONE', #197, #73, #173 ) ;
#54 = ORIENTED_EDGE ( 'NONE', *, *, #13, .F. ) ;
#55 = UNCERTAINTY_MEASURE_WITH_UNIT (LENGTH_MEASURE( 1.000000000000000082E-05 ), #303, 'distance_accuracy_value', 'NONE');
#56 = DIRECTION ( 'NONE',  ( 3.491481338843133355E-15, -1.224646799147352961E-16, 1.000000000000000000 ) ) ;
#57 = AXIS2_PLACEMENT_3D ( 'NONE', #23, #132, #161 ) ;
#58 = CARTESIAN_POINT ( 'NONE',  ( 1.396592535537253342E-14, 2.838295388687555246E-33, 4.000000000000000000 ) ) ;
#59 = ORIENTED_EDGE ( 'NONE', *, *, #179, .F. ) ;
#60 = AXIS2_PLACEMENT_3D ( 'NONE', #283, #50, #261 ) ;
#61 = CC_DESIGN_SECURITY_CLASSIFICATION ( #254, ( #222 ) ) ;
#62 = CC_DESIGN_DATE_AND_TIME_ASSIGNMENT ( #129, #111, ( #231 ) ) ;
#63 = CARTESIAN_POINT ( 'NONE',  ( 1.316288464743861212E-13, 1.499999999999998668, 37.69999999999999574 ) ) ;
#64 = ORIENTED_EDGE ( 'NONE', *, *, #66, .F. ) ;
#65 = CIRCLE ( 'NONE', #140, 1.500000000000003331 ) ;
#66 = EDGE_CURVE ( 'NONE', #5, #5, #3, .T. ) ;
#67 = DIRECTION ( 'NONE',  ( 4.275831445896957731E-31, 1.000000000000000000, 1.224646799147353207E-16 ) ) ;
#68 = ADVANCED_BREP_SHAPE_REPRESENTATION ( '200016', ( #40, #153, #136 ), #25 ) ;
#69 = CARTESIAN_POINT ( 'NONE',  ( 1.396592535537253342E-14, -4.898587196589411843E-16, 4.000000000000000000 ) ) ;
#70 = PERSON_AND_ORGANIZATION ( #48, #268 ) ;
#71 = FACE_OUTER_BOUND ( 'NONE', #199, .T. ) ;
#72 = ADVANCED_FACE ( 'NONE', ( #90, #91 ), #210, .T. ) ;
#73 = DIRECTION ( 'NONE',  ( -3.491481338843133355E-15, 1.224646799147352961E-16, -1.000000000000000000 ) ) ;
#74 = ORIENTED_EDGE ( 'NONE', *, *, #274, .T. ) ;
#75 = AXIS2_PLACEMENT_3D ( 'NONE', #270, #156, #29 ) ;
#76 = CARTESIAN_POINT ( 'NONE',  ( 3.491481338843130890E-16, -1.224646799147352036E-17, 0.09999999999999992228 ) ) ;
#77 = DESIGN_CONTEXT ( 'detailed design', #88, 'design' ) ;
#78 = CARTESIAN_POINT ( 'NONE',  ( 3.491481338843130890E-16, -1.224646799147352036E-17, 0.09999999999999992228 ) ) ;
#79 = FACE_OUTER_BOUND ( 'NONE', #33, .T. ) ;
#80 = ORIENTED_EDGE ( 'NONE', *, *, #262, .T. ) ;
#81 = EDGE_LOOP ( 'NONE', ( #100 ) ) ;
#82 = DIRECTION ( 'NONE',  ( 0.0000000000000000000, 1.000000000000000000, 0.0000000000000000000 ) ) ;
#83 = PRODUCT_RELATED_PRODUCT_CATEGORY ( 'detail', '', ( #272 ) ) ;
#84 = SECURITY_CLASSIFICATION_LEVEL ( 'unclassified' ) ;
#85 = APPROVAL_STATUS ( 'not_yet_approved' ) ;
#86 = AXIS2_PLACEMENT_3D ( 'NONE', #151, #2, #94 ) ;
#87 = APPROVAL_ROLE ( '' ) ;
#88 = APPLICATION_CONTEXT ( 'configuration controlled 3d designs of mechanical parts and assemblies' ) ;
#89 = DATE_TIME_ROLE ( 'classification_date' ) ;
#90 = FACE_OUTER_BOUND ( 'NONE', #252, .T. ) ;
#91 = FACE_OUTER_BOUND ( 'NONE', #155, .T. ) ;
#92 = ORIENTED_EDGE ( 'NONE', *, *, #298, .F. ) ;
#93 = AXIS2_PLACEMENT_3D ( 'NONE', #120, #288, #67 ) ;
#94 = DIRECTION ( 'NONE',  ( 4.275831445896957731E-31, 1.000000000000000000, 1.224646799147352961E-16 ) ) ;
#95 = DATE_AND_TIME ( #27, #183 ) ;
#96 = DIRECTION ( 'NONE',  ( -3.491481338843133355E-15, 1.224646799147352961E-16, -1.000000000000000000 ) ) ;
#97 = EDGE_CURVE ( 'NONE', #118, #118, #65, .T. ) ;
#98 = CALENDAR_DATE ( 2021, 29, 11 ) ;
#99 = SHAPE_DEFINITION_REPRESENTATION ( #205, #68 ) ;
#100 = ORIENTED_EDGE ( 'NONE', *, *, #262, .F. ) ;
#101 = FACE_OUTER_BOUND ( 'NONE', #269, .T. ) ;
#102 = EDGE_LOOP ( 'NONE', ( #54 ) ) ;
#103 = DIRECTION ( 'NONE',  ( 0.0000000000000000000, -1.000000000000000000, 0.0000000000000000000 ) ) ;
#104 = APPROVAL ( #237, 'UNSPECIFIED' ) ;
#105 = ORIENTED_EDGE ( 'NONE', *, *, #9, .T. ) ;
#106 = DIRECTION ( 'NONE',  ( -4.275831445896957731E-31, -1.000000000000000000, -1.224646799147352961E-16 ) ) ;
#107 = APPROVAL_PERSON_ORGANIZATION ( #297, #4, #149 ) ;
#108 = DIRECTION ( 'NONE',  ( 3.816241633528214972E-31, 1.000000000000000000, 1.074176524919590119E-16 ) ) ;
#109 = CC_DESIGN_PERSON_AND_ORGANIZATION_ASSIGNMENT ( #32, #276, ( #231 ) ) ;
#110 = VERTEX_POINT ( 'NONE', #225 ) ;
#111 = DATE_TIME_ROLE ( 'creation_date' ) ;
#112 = PERSON_AND_ORGANIZATION ( #48, #268 ) ;
#113 = PERSON_AND_ORGANIZATION_ROLE ( 'classification_officer' ) ;
#114 = VERTEX_POINT ( 'NONE', #39 ) ;
#115 = DIRECTION ( 'NONE',  ( 0.0000000000000000000, 0.0000000000000000000, 1.000000000000000000 ) ) ;
#116 = VERTEX_POINT ( 'NONE', #142 ) ;
#117 = EDGE_LOOP ( 'NONE', ( #271 ) ) ;
#118 = VERTEX_POINT ( 'NONE', #63 ) ;
#119 = APPROVAL_DATE_TIME ( #95, #104 ) ;
#120 = CARTESIAN_POINT ( 'NONE',  ( 0.0000000000000000000, 0.0000000000000000000, 0.0000000000000000000 ) ) ;
#121 = AXIS2_PLACEMENT_3D ( 'NONE', #133, #6, #227 ) ;
#122 = LOCAL_TIME ( 15, 49, 14.00000000000000000, #165 ) ;
#123 = FACE_BOUND ( 'NONE', #177, .T. ) ;
#124 = ORIENTED_EDGE ( 'NONE', *, *, #97, .F. ) ;
#125 = CARTESIAN_POINT ( 'NONE',  ( 1.326762908760390423E-13, -4.653657836759941152E-15, 38.00000000000000000 ) ) ;
#126 = FACE_BOUND ( 'NONE', #139, .T. ) ;
#127 = EDGE_LOOP ( 'NONE', ( #36 ) ) ;
#128 = CONICAL_SURFACE ( 'NONE', #258, 1.200000000000003286, 0.7853981633974453924 ) ;
#129 = DATE_AND_TIME ( #98, #200 ) ;
#130 = DIRECTION ( 'NONE',  ( 3.491481338843133355E-15, -1.224646799147352961E-16, 1.000000000000000000 ) ) ;
#131 = EDGE_LOOP ( 'NONE', ( #220 ) ) ;
#132 = DIRECTION ( 'NONE',  ( 3.491481338843133355E-15, -1.224646799147352961E-16, 1.000000000000000000 ) ) ;
#133 = CARTESIAN_POINT ( 'NONE',  ( 1.413827691294035716E-14, -4.959039985196734236E-16, 4.049363448015714795 ) ) ;
#134 = CIRCLE ( 'NONE', #150, 0.3207649730810375743 ) ;
#135 = CC_DESIGN_PERSON_AND_ORGANIZATION_ASSIGNMENT ( #280, #138, ( #222 ) ) ;
#136 = AXIS2_PLACEMENT_3D ( 'NONE', #45, #115, #214 ) ;
#137 = APPLICATION_PROTOCOL_DEFINITION ( 'international standard', 'config_control_design', 1994, #190 ) ;
#138 = PERSON_AND_ORGANIZATION_ROLE ( 'creator' ) ;
#139 = EDGE_LOOP ( 'NONE', ( #7 ) ) ;
#140 = AXIS2_PLACEMENT_3D ( 'NONE', #194, #168, #195 ) ;
#141 = APPROVAL_PERSON_ORGANIZATION ( #70, #245, #87 ) ;
#142 = CARTESIAN_POINT ( 'NONE',  ( 1.413827691294035716E-14, 0.3499999999999984235, 4.049363448015714795 ) ) ;
#143 = APPROVAL_STATUS ( 'not_yet_approved' ) ;
#144 = DIRECTION ( 'NONE',  ( 0.0000000000000000000, 1.000000000000000000, 0.0000000000000000000 ) ) ;
#145 = AXIS2_PLACEMENT_3D ( 'NONE', #44, #171, #47 ) ;
#146 = FACE_OUTER_BOUND ( 'NONE', #102, .T. ) ;
#147 = CLOSED_SHELL ( 'NONE', ( #290, #243, #296, #292 ) ) ;
#148 = CARTESIAN_POINT ( 'NONE',  ( 1.326762908760390423E-13, -4.653657836759941152E-15, 38.00000000000000000 ) ) ;
#149 = APPROVAL_ROLE ( '' ) ;
#150 = AXIS2_PLACEMENT_3D ( 'NONE', #265, #15, #180 ) ;
#151 = CARTESIAN_POINT ( 'NONE',  ( 0.0000000000000000000, 0.0000000000000000000, 0.0000000000000000000 ) ) ;
#152 = AXIS2_PLACEMENT_3D ( 'NONE', #284, #300, #217 ) ;
#153 = MANIFOLD_SOLID_BREP ( 'Corps-Déplacer/Copier1[2]', #147 ) ;
#154 = FACE_OUTER_BOUND ( 'NONE', #295, .T. ) ;
#155 = EDGE_LOOP ( 'NONE', ( #228 ) ) ;
#156 = DIRECTION ( 'NONE',  ( 3.491481338843133355E-15, -1.224646799147352961E-16, 1.000000000000000000 ) ) ;
#157 = FACE_OUTER_BOUND ( 'NONE', #81, .T. ) ;
#158 = ORIENTED_EDGE ( 'NONE', *, *, #66, .T. ) ;
#159 = VERTEX_POINT ( 'NONE', #250 ) ;
#160 = ADVANCED_FACE ( 'NONE', ( #42, #285 ), #182, .F. ) ;
#161 = DIRECTION ( 'NONE',  ( -4.275831445896957731E-31, -1.000000000000000000, -1.224646799147352961E-16 ) ) ;
#162 = PLANE ( 'NONE',  #75 ) ;
#163 = AXIS2_PLACEMENT_3D ( 'NONE', #58, #293, #106 ) ;
#164 = CC_DESIGN_PERSON_AND_ORGANIZATION_ASSIGNMENT ( #232, #113, ( #254 ) ) ;
#165 = COORDINATED_UNIVERSAL_TIME_OFFSET ( 1, 0, .AHEAD. ) ;
#166 = AXIS2_PLACEMENT_3D ( 'NONE', #78, #130, #251 ) ;
#167 = ADVANCED_FACE ( 'NONE', ( #170, #299 ), #236, .T. ) ;
#168 = DIRECTION ( 'NONE',  ( -3.491481338843133355E-15, 1.224646799147352961E-16, -1.000000000000000000 ) ) ;
#169 = CONICAL_SURFACE ( 'NONE', #121, 0.3499999999999989231, 0.5235987755982944858 ) ;
#170 = FACE_OUTER_BOUND ( 'NONE', #175, .T. ) ;
#171 = DIRECTION ( 'NONE',  ( -3.491481338843133355E-15, 1.224646799147352961E-16, -1.000000000000000000 ) ) ;
#172 = COORDINATED_UNIVERSAL_TIME_OFFSET ( 1, 0, .AHEAD. ) ;
#173 = DIRECTION ( 'NONE',  ( 0.0000000000000000000, 1.000000000000000000, 0.0000000000000000000 ) ) ;
#174 = DIRECTION ( 'NONE',  ( 0.0000000000000000000, 1.000000000000000000, 0.0000000000000000000 ) ) ;
#175 = EDGE_LOOP ( 'NONE', ( #242 ) ) ;
#176 = CONICAL_SURFACE ( 'NONE', #37, 1.499999999999997113, 0.1745329251994259534 ) ;
#177 = EDGE_LOOP ( 'NONE', ( #201 ) ) ;
#178 = CARTESIAN_POINT ( 'NONE',  ( 5.131413161946100799E-14, -1.799857451325254460E-15, 14.69695141961246065 ) ) ;
#179 = EDGE_CURVE ( 'NONE', #257, #257, #41, .T. ) ;
#180 = DIRECTION ( 'NONE',  ( 4.275831445896957731E-31, 1.000000000000000000, 1.224646799147352961E-16 ) ) ;
#181 = EDGE_LOOP ( 'NONE', ( #226 ) ) ;
#182 = TOROIDAL_SURFACE ( 'NONE', #60, 2.349999999999999201, 2.000000000000000000 ) ;
#183 = LOCAL_TIME ( 15, 49, 14.00000000000000000, #263 ) ;
#184 = FACE_OUTER_BOUND ( 'NONE', #10, .T. ) ;
#185 = FACE_OUTER_BOUND ( 'NONE', #117, .T. ) ;
#186 = PERSON_AND_ORGANIZATION_ROLE ( 'design_owner' ) ;
#187 = EDGE_CURVE ( 'NONE', #256, #256, #134, .T. ) ;
#188 = PERSON_AND_ORGANIZATION ( #48, #268 ) ;
#189 = PERSON_AND_ORGANIZATION ( #48, #268 ) ;
#190 = APPLICATION_CONTEXT ( 'configuration controlled 3d designs of mechanical parts and assemblies' ) ;
#191 = CC_DESIGN_PERSON_AND_ORGANIZATION_ASSIGNMENT ( #112, #186, ( #272 ) ) ;
#192 = PLANE ( 'NONE',  #18 ) ;
#193 = CALENDAR_DATE ( 2021, 29, 11 ) ;
#194 = CARTESIAN_POINT ( 'NONE',  ( 1.316288464743861212E-13, -4.616918432785520292E-15, 37.69999999999999574 ) ) ;
#195 = DIRECTION ( 'NONE',  ( 0.0000000000000000000, 1.000000000000000000, 0.0000000000000000000 ) ) ;
#196 = APPROVAL_PERSON_ORGANIZATION ( #189, #104, #16 ) ;
#197 = CARTESIAN_POINT ( 'NONE',  ( 1.396592535537253342E-14, -4.898587196589411843E-16, 4.000000000000000000 ) ) ;
#198 = CC_DESIGN_DATE_AND_TIME_ASSIGNMENT ( #259, #89, ( #254 ) ) ;
#199 = EDGE_LOOP ( 'NONE', ( #158 ) ) ;
#200 = LOCAL_TIME ( 15, 49, 14.00000000000000000, #35 ) ;
#201 = ORIENTED_EDGE ( 'NONE', *, *, #13, .T. ) ;
#202 = FACE_OUTER_BOUND ( 'NONE', #22, .T. ) ;
#203 = LOCAL_TIME ( 15, 49, 14.00000000000000000, #172 ) ;
#204 = DIRECTION ( 'NONE',  ( -3.491481338843133355E-15, 1.224646799147352961E-16, -1.000000000000000000 ) ) ;
#205 = PRODUCT_DEFINITION_SHAPE ( 'NONE', 'NONE',  #231 ) ;
#206 = CARTESIAN_POINT ( 'NONE',  ( 1.413827691294035716E-14, -4.959039985196734236E-16, 4.049363448015714795 ) ) ;
#207 = CARTESIAN_POINT ( 'NONE',  ( 1.326762908760390423E-13, 1.199999999999998845, 38.00000000000000000 ) ) ;
#208 = PERSON_AND_ORGANIZATION_ROLE ( 'design_supplier' ) ;
#209 = APPLICATION_PROTOCOL_DEFINITION ( 'international standard', 'config_control_design', 1994, #88 ) ;
#210 = CYLINDRICAL_SURFACE ( 'NONE', #93, 1.500000000000000222 ) ;
#211 = CALENDAR_DATE ( 2021, 29, 11 ) ;
#212 = CIRCLE ( 'NONE', #152, 0.3499999999999993117 ) ;
#213 = AXIS2_PLACEMENT_3D ( 'NONE', #206, #278, #82 ) ;
#214 = DIRECTION ( 'NONE',  ( 1.000000000000000000, 0.0000000000000000000, 0.0000000000000000000 ) ) ;
#215 = VERTEX_POINT ( 'NONE', #301 ) ;
#216 = DIRECTION ( 'NONE',  ( -3.491481338843133355E-15, 1.224646799147352961E-16, -1.000000000000000000 ) ) ;
#217 = DIRECTION ( 'NONE',  ( 0.0000000000000000000, 1.000000000000000000, 0.0000000000000000000 ) ) ;
#218 = CC_DESIGN_PERSON_AND_ORGANIZATION_ASSIGNMENT ( #188, #208, ( #222 ) ) ;
#219 = CC_DESIGN_APPROVAL ( #104, ( #254 ) ) ;
#220 = ORIENTED_EDGE ( 'NONE', *, *, #9, .F. ) ;
#221 = ADVANCED_FACE ( 'NONE', ( #154, #123 ), #128, .T. ) ;
#222 = PRODUCT_DEFINITION_FORMATION_WITH_SPECIFIED_SOURCE ( 'ANY', '', #272, .NOT_KNOWN. ) ;
#223 = PLANE ( 'NONE',  #163 ) ;
#224 = EDGE_LOOP ( 'NONE', ( #74 ) ) ;
#225 = CARTESIAN_POINT ( 'NONE',  ( 2.793185071074506684E-14, 0.3499999999999983125, 8.000000000000000000 ) ) ;
#226 = ORIENTED_EDGE ( 'NONE', *, *, #298, .T. ) ;
#227 = DIRECTION ( 'NONE',  ( 0.0000000000000000000, 1.000000000000000000, 0.0000000000000000000 ) ) ;
#228 = ORIENTED_EDGE ( 'NONE', *, *, #97, .T. ) ;
#229 = FACE_OUTER_BOUND ( 'NONE', #181, .T. ) ;
#230 = MECHANICAL_CONTEXT ( 'NONE', #190, 'mechanical' ) ;
#231 = PRODUCT_DEFINITION ( 'UNKNOWN', '', #222, #77 ) ;
#232 = PERSON_AND_ORGANIZATION ( #48, #268 ) ;
#233 = CIRCLE ( 'NONE', #30, 1.499999999999997113 ) ;
#234 =( NAMED_UNIT ( * ) PLANE_ANGLE_UNIT ( ) SI_UNIT ( $, .RADIAN. ) );
#235 = ADVANCED_FACE ( 'NONE', ( #184, #291 ), #169, .T. ) ;
#236 = CYLINDRICAL_SURFACE ( 'NONE', #86, 0.3499999999999990896 ) ;
#237 = APPROVAL_STATUS ( 'not_yet_approved' ) ;
#238 = CLOSED_SHELL ( 'NONE', ( #43, #235, #167, #160, #266, #72, #221, #51 ) ) ;
#239 = AXIS2_PLACEMENT_3D ( 'NONE', #148, #240, #19 ) ;
#240 = DIRECTION ( 'NONE',  ( -3.491481338843133355E-15, 1.224646799147352961E-16, -1.000000000000000000 ) ) ;
#241 = CARTESIAN_POINT ( 'NONE',  ( 1.396592535537253342E-14, 0.3784999999999992815, 4.000000000000000000 ) ) ;
#242 = ORIENTED_EDGE ( 'NONE', *, *, #274, .F. ) ;
#243 = ADVANCED_FACE ( 'NONE', ( #126, #101 ), #24, .T. ) ;
#244 = CIRCLE ( 'NONE', #11, 0.3784999999999993370 ) ;
#245 = APPROVAL ( #143, 'UNSPECIFIED' ) ;
#246 = APPROVAL_DATE_TIME ( #289, #4 ) ;
#247 = EDGE_LOOP ( 'NONE', ( #105 ) ) ;
#248 = CARTESIAN_POINT ( 'NONE',  ( 5.131413161946100799E-14, -1.799857451325254460E-15, 14.69695141961246065 ) ) ;
#249 = EDGE_LOOP ( 'NONE', ( #277 ) ) ;
#250 = CARTESIAN_POINT ( 'NONE',  ( 2.914442945444142440E-14, 0.3803844939755797183, 8.347296355333845952 ) ) ;
#251 = DIRECTION ( 'NONE',  ( -3.816241633528214972E-31, -1.000000000000000000, -1.074176524919590119E-16 ) ) ;
#252 = EDGE_LOOP ( 'NONE', ( #92 ) ) ;
#253 = VERTEX_POINT ( 'NONE', #207 ) ;
#254 = SECURITY_CLASSIFICATION ( '', '', #84 ) ;
#255 = APPROVAL_DATE_TIME ( #38, #245 ) ;
#256 = VERTEX_POINT ( 'NONE', #14 ) ;
#257 = VERTEX_POINT ( 'NONE', #17 ) ;
#258 = AXIS2_PLACEMENT_3D ( 'NONE', #125, #96, #174 ) ;
#259 = DATE_AND_TIME ( #211, #12 ) ;
#260 = DIRECTION ( 'NONE',  ( -3.491481338843133355E-15, 1.224646799147352961E-16, -1.000000000000000000 ) ) ;
#261 = DIRECTION ( 'NONE',  ( 4.275831445896957731E-31, 1.000000000000000000, 1.224646799147352961E-16 ) ) ;
#262 = EDGE_CURVE ( 'NONE', #114, #114, #244, .T. ) ;
#263 = COORDINATED_UNIVERSAL_TIME_OFFSET ( 1, 0, .AHEAD. ) ;
#264 = PLANE ( 'NONE',  #57 ) ;
#265 = CARTESIAN_POINT ( 'NONE',  ( -2.317904871833772181E-31, 8.130115863542982084E-33, -6.638743406836556148E-17 ) ) ;
#266 = ADVANCED_FACE ( 'NONE', ( #8, #229 ), #176, .T. ) ;
#267 = AXIS2_PLACEMENT_3D ( 'NONE', #69, #260, #144 ) ;
#268 = ORGANIZATION ( 'UNSPECIFIED', 'UNSPECIFIED', '' ) ;
#269 = EDGE_LOOP ( 'NONE', ( #80 ) ) ;
#270 = CARTESIAN_POINT ( 'NONE',  ( -1.158952435916886090E-31, 4.065057931771491042E-33, -3.319371703418278074E-17 ) ) ;
#271 = ORIENTED_EDGE ( 'NONE', *, *, #187, .T. ) ;
#272 = PRODUCT ( '200016', '200016', '', ( #230 ) ) ;
#273 = DIRECTION ( 'NONE',  ( -3.491481338843133355E-15, 1.224646799147352961E-16, -1.000000000000000000 ) ) ;
#274 = EDGE_CURVE ( 'NONE', #116, #116, #302, .T. ) ;
#275 = CYLINDRICAL_SURFACE ( 'NONE', #31, 0.3784999999999995590 ) ;
#276 = PERSON_AND_ORGANIZATION_ROLE ( 'creator' ) ;
#277 = ORIENTED_EDGE ( 'NONE', *, *, #28, .F. ) ;
#278 = DIRECTION ( 'NONE',  ( -3.491481338843133355E-15, 1.224646799147352961E-16, -1.000000000000000000 ) ) ;
#279 = CIRCLE ( 'NONE', #145, 0.3803844939755807730 ) ;
#280 = PERSON_AND_ORGANIZATION ( #48, #268 ) ;
#281 = COORDINATED_UNIVERSAL_TIME_OFFSET ( 1, 0, .AHEAD. ) ;
#282 = CC_DESIGN_APPROVAL ( #245, ( #222 ) ) ;
#283 = CARTESIAN_POINT ( 'NONE',  ( 2.793185071074506684E-14, -8.673617379884035472E-16, 8.000000000000000000 ) ) ;
#284 = CARTESIAN_POINT ( 'NONE',  ( 2.793185071074506684E-14, -9.797174393178823685E-16, 8.000000000000000000 ) ) ;
#285 = FACE_OUTER_BOUND ( 'NONE', #247, .T. ) ;
#286 = DIRECTION ( 'NONE',  ( 0.0000000000000000000, 1.000000000000000000, 0.0000000000000000000 ) ) ;
#287 = CC_DESIGN_APPROVAL ( #4, ( #231 ) ) ;
#288 = DIRECTION ( 'NONE',  ( -3.491481338843133355E-15, 1.224646799147352961E-16, -1.000000000000000000 ) ) ;
#289 = DATE_AND_TIME ( #26, #203 ) ;
#290 = ADVANCED_FACE ( 'NONE', ( #185 ), #162, .F. ) ;
#291 = FACE_BOUND ( 'NONE', #224, .T. ) ;
#292 = ADVANCED_FACE ( 'NONE', ( #202 ), #223, .T. ) ;
#293 = DIRECTION ( 'NONE',  ( 3.491481338843133355E-15, -1.224646799147352961E-16, 1.000000000000000000 ) ) ;
#294 = DIRECTION ( 'NONE',  ( 4.275831445896957731E-31, 1.000000000000000000, 1.224646799147352961E-16 ) ) ;
#295 = EDGE_LOOP ( 'NONE', ( #124 ) ) ;
#296 = ADVANCED_FACE ( 'NONE', ( #157, #79 ), #275, .T. ) ;
#297 = PERSON_AND_ORGANIZATION ( #48, #268 ) ;
#298 = EDGE_CURVE ( 'NONE', #215, #215, #233, .T. ) ;
#299 = FACE_OUTER_BOUND ( 'NONE', #127, .T. ) ;
#300 = DIRECTION ( 'NONE',  ( -3.491481338843133355E-15, 1.224646799147352961E-16, -1.000000000000000000 ) ) ;
#301 = CARTESIAN_POINT ( 'NONE',  ( 5.131413161946100799E-14, 1.499999999999995559, 14.69695141961246065 ) ) ;
#302 = CIRCLE ( 'NONE', #213, 0.3499999999999989231 ) ;
#303 =( LENGTH_UNIT ( ) NAMED_UNIT ( * ) SI_UNIT ( .MILLI., .METRE. ) );
ENDSEC;
END-ISO-10303-21;
