ISO-10303-21;
HEADER;
FILE_DESCRIPTION (( 'STEP AP203' ),
    '1' );
FILE_NAME ('200015.step',
    '2021-11-26T14:47:22',
    ( '' ),
    ( '' ),
    'SwSTEP 2.0',
    'SolidWorks 2019',
    '' );
FILE_SCHEMA (( 'CONFIG_CONTROL_DESIGN' ));
ENDSEC;

DATA;
#1 = CC_DESIGN_PERSON_AND_ORGANIZATION_ASSIGNMENT ( #103, #81, ( #250 ) ) ;
#2 = DATE_AND_TIME ( #193, #215 ) ;
#3 = ADVANCED_FACE ( 'NONE', ( #108 ), #105, .F. ) ;
#4 = EDGE_CURVE ( 'NONE', #264, #264, #117, .T. ) ;
#5 = AXIS2_PLACEMENT_3D ( 'NONE', #253, #53, #148 ) ;
#6 = LOCAL_TIME ( 15, 47, 22.00000000000000000, #262 ) ;
#7 = ORIENTED_EDGE ( 'NONE', *, *, #233, .T. ) ;
#8 = FACE_OUTER_BOUND ( 'NONE', #127, .T. ) ;
#9 = CARTESIAN_POINT ( 'NONE',  ( 1.396592535537253342E-14, 2.425861448455543446E-33, 4.000000000000000000 ) ) ;
#10 = CIRCLE ( 'NONE', #144, 0.3234999999999991216 ) ;
#11 = EDGE_LOOP ( 'NONE', ( #227 ) ) ;
#12 = AXIS2_PLACEMENT_3D ( 'NONE', #49, #163, #91 ) ;
#13 = DIRECTION ( 'NONE',  ( -3.491481338843133355E-15, 1.224646799147352961E-16, -1.000000000000000000 ) ) ;
#14 = AXIS2_PLACEMENT_3D ( 'NONE', #83, #15, #282 ) ;
#15 = DIRECTION ( 'NONE',  ( -3.491481338843133355E-15, 1.224646799147352961E-16, -1.000000000000000000 ) ) ;
#16 = AXIS2_PLACEMENT_3D ( 'NONE', #43, #28, #21 ) ;
#17 = APPROVAL_ROLE ( '' ) ;
#18 = COORDINATED_UNIVERSAL_TIME_OFFSET ( 1, 0, .AHEAD. ) ;
#19 = EDGE_CURVE ( 'NONE', #165, #165, #76, .T. ) ;
#20 = ORIENTED_EDGE ( 'NONE', *, *, #93, .F. ) ;
#21 = DIRECTION ( 'NONE',  ( 0.0000000000000000000, 1.000000000000000000, 0.0000000000000000000 ) ) ;
#22 = APPROVAL ( #31, 'UNSPECIFIED' ) ;
#23 = DIRECTION ( 'NONE',  ( 0.0000000000000000000, 1.000000000000000000, 0.0000000000000000000 ) ) ;
#24 = CYLINDRICAL_SURFACE ( 'NONE', #109, 0.3234999999999993436 ) ;
#25 = DIRECTION ( 'NONE',  ( 0.0000000000000000000, 1.000000000000000000, 0.0000000000000000000 ) ) ;
#26 = ORIENTED_EDGE ( 'NONE', *, *, #19, .F. ) ;
#27 = PRODUCT_RELATED_PRODUCT_CATEGORY ( 'detail', '', ( #202 ) ) ;
#28 = DIRECTION ( 'NONE',  ( -3.491481338843133355E-15, 1.224646799147352961E-16, -1.000000000000000000 ) ) ;
#29 = CARTESIAN_POINT ( 'NONE',  ( 2.565294811559829736E-14, -8.997842963946609330E-16, 7.347296355333847728 ) ) ;
#30 = CC_DESIGN_SECURITY_CLASSIFICATION ( #131, ( #250 ) ) ;
#31 = APPROVAL_STATUS ( 'not_yet_approved' ) ;
#32 = CLOSED_SHELL ( 'NONE', ( #3, #47, #89, #189 ) ) ;
#33 = APPROVAL_STATUS ( 'not_yet_approved' ) ;
#34 = DIRECTION ( 'NONE',  ( 0.0000000000000000000, 1.000000000000000000, 0.0000000000000000000 ) ) ;
#35 = DIRECTION ( 'NONE',  ( 0.0000000000000000000, 1.000000000000000000, 0.0000000000000000000 ) ) ;
#36 = APPROVAL_PERSON_ORGANIZATION ( #254, #63, #88 ) ;
#37 = ADVANCED_FACE ( 'NONE', ( #123, #194 ), #167, .T. ) ;
#38 = PERSON_AND_ORGANIZATION ( #51, #61 ) ;
#39 = COORDINATED_UNIVERSAL_TIME_OFFSET ( 1, 0, .AHEAD. ) ;
#40 = VERTEX_POINT ( 'NONE', #134 ) ;
#41 = FACE_BOUND ( 'NONE', #69, .T. ) ;
#42 = EDGE_LOOP ( 'NONE', ( #50 ) ) ;
#43 = CARTESIAN_POINT ( 'NONE',  ( 4.834738140859152994E-14, -1.695797861798281261E-15, 13.84724038783233091 ) ) ;
#44 = APPLICATION_CONTEXT ( 'configuration controlled 3d designs of mechanical parts and assemblies' ) ;
#45 = DIRECTION ( 'NONE',  ( -3.491481338843133355E-15, 1.224646799147352961E-16, -1.000000000000000000 ) ) ;
#46 = AXIS2_PLACEMENT_3D ( 'NONE', #232, #198, #35 ) ;
#47 = ADVANCED_FACE ( 'NONE', ( #280, #82 ), #271, .T. ) ;
#48 = APPLICATION_PROTOCOL_DEFINITION ( 'international standard', 'config_control_design', 1994, #122 ) ;
#49 = CARTESIAN_POINT ( 'NONE',  ( 1.326762908760390423E-13, -4.653657836759941152E-15, 38.00000000000000000 ) ) ;
#50 = ORIENTED_EDGE ( 'NONE', *, *, #238, .T. ) ;
#51 = PERSON ( 'UNSPECIFIED', 'UNSPECIFIED', 'UNSPECIFIED', ('UNSPECIFIED'), ('UNSPECIFIED'), ('UNSPECIFIED') ) ;
#52 = CARTESIAN_POINT ( 'NONE',  ( 1.396592535537253342E-14, -4.898587196589411843E-16, 4.000000000000000000 ) ) ;
#53 = DIRECTION ( 'NONE',  ( 3.491481338843133355E-15, -1.224646799147352961E-16, 1.000000000000000000 ) ) ;
#54 = LOCAL_TIME ( 15, 47, 22.00000000000000000, #106 ) ;
#55 = ORIENTED_EDGE ( 'NONE', *, *, #278, .F. ) ;
#56 = SHAPE_DEFINITION_REPRESENTATION ( #217, #173 ) ;
#57 = DATE_AND_TIME ( #195, #84 ) ;
#58 = DIRECTION ( 'NONE',  ( -4.465061694869956095E-31, -1.000000000000000000, -1.256803136575163099E-16 ) ) ;
#59 = CC_DESIGN_APPROVAL ( #201, ( #250 ) ) ;
#60 = AXIS2_PLACEMENT_3D ( 'NONE', #80, #276, #107 ) ;
#61 = ORGANIZATION ( 'UNSPECIFIED', 'UNSPECIFIED', '' ) ;
#62 = CALENDAR_DATE ( 2021, 26, 11 ) ;
#63 = APPROVAL ( #147, 'UNSPECIFIED' ) ;
#64 = ADVANCED_FACE ( 'NONE', ( #74, #174 ), #150, .F. ) ;
#65 = VERTEX_POINT ( 'NONE', #156 ) ;
#66 = CC_DESIGN_PERSON_AND_ORGANIZATION_ASSIGNMENT ( #121, #87, ( #172 ) ) ;
#67 = CARTESIAN_POINT ( 'NONE',  ( 2.444036937190193349E-14, -8.572527594031471218E-16, 7.000000000000000000 ) ) ;
#68 = PLANE ( 'NONE',  #210 ) ;
#69 = EDGE_LOOP ( 'NONE', ( #26 ) ) ;
#70 = CARTESIAN_POINT ( 'NONE',  ( 4.834738140859152994E-14, -1.695797861798281261E-15, 13.84724038783233091 ) ) ;
#71 = EDGE_LOOP ( 'NONE', ( #96 ) ) ;
#72 = DIRECTION ( 'NONE',  ( 0.0000000000000000000, -1.000000000000000000, 0.0000000000000000000 ) ) ;
#73 = ADVANCED_FACE ( 'NONE', ( #214, #149 ), #177, .T. ) ;
#74 = FACE_OUTER_BOUND ( 'NONE', #142, .T. ) ;
#75 = APPLICATION_PROTOCOL_DEFINITION ( 'international standard', 'config_control_design', 1994, #44 ) ;
#76 = CIRCLE ( 'NONE', #199, 0.3538844939755812491 ) ;
#77 = CIRCLE ( 'NONE', #283, 0.3234999999999996212 ) ;
#78 = ORIENTED_EDGE ( 'NONE', *, *, #4, .T. ) ;
#79 = DATE_TIME_ROLE ( 'classification_date' ) ;
#80 = CARTESIAN_POINT ( 'NONE',  ( 0.0000000000000000000, 0.0000000000000000000, 0.0000000000000000000 ) ) ;
#81 = PERSON_AND_ORGANIZATION_ROLE ( 'creator' ) ;
#82 = FACE_OUTER_BOUND ( 'NONE', #231, .T. ) ;
#83 = CARTESIAN_POINT ( 'NONE',  ( 2.444036937190193349E-14, -8.673617379884035472E-16, 7.000000000000000000 ) ) ;
#84 = LOCAL_TIME ( 15, 47, 22.00000000000000000, #39 ) ;
#85 = CARTESIAN_POINT ( 'NONE',  ( 2.565294811559829736E-14, 0.3538844939755803054, 7.347296355333847728 ) ) ;
#86 = MANIFOLD_SOLID_BREP ( 'Corps-Déplacer/Copier1[1]', #130 ) ;
#87 = PERSON_AND_ORGANIZATION_ROLE ( 'creator' ) ;
#88 = APPROVAL_ROLE ( '' ) ;
#89 = ADVANCED_FACE ( 'NONE', ( #129, #137 ), #24, .T. ) ;
#90 = ORIENTED_EDGE ( 'NONE', *, *, #186, .F. ) ;
#91 = DIRECTION ( 'NONE',  ( 0.0000000000000000000, 1.000000000000000000, 0.0000000000000000000 ) ) ;
#92 = CIRCLE ( 'NONE', #212, 0.2657649730810374700 ) ;
#93 = EDGE_CURVE ( 'NONE', #237, #237, #10, .T. ) ;
#94 = DIRECTION ( 'NONE',  ( -3.491481338843133355E-15, 1.224646799147352961E-16, -1.000000000000000000 ) ) ;
#95 = MECHANICAL_CONTEXT ( 'NONE', #44, 'mechanical' ) ;
#96 = ORIENTED_EDGE ( 'NONE', *, *, #125, .T. ) ;
#97 = DIRECTION ( 'NONE',  ( -3.491481338843133355E-15, 1.224646799147352961E-16, -1.000000000000000000 ) ) ;
#98 = FACE_OUTER_BOUND ( 'NONE', #71, .T. ) ;
#99 = AXIS2_PLACEMENT_3D ( 'NONE', #67, #239, #25 ) ;
#100 = DIRECTION ( 'NONE',  ( 1.000000000000000000, 0.0000000000000000000, 0.0000000000000000000 ) ) ;
#101 = EDGE_LOOP ( 'NONE', ( #218 ) ) ;
#102 = PERSON_AND_ORGANIZATION ( #51, #61 ) ;
#103 = PERSON_AND_ORGANIZATION ( #51, #61 ) ;
#104 = CC_DESIGN_APPROVAL ( #22, ( #172 ) ) ;
#105 = PLANE ( 'NONE',  #5 ) ;
#106 = COORDINATED_UNIVERSAL_TIME_OFFSET ( 1, 0, .AHEAD. ) ;
#107 = DIRECTION ( 'NONE',  ( 4.275831445896957731E-31, 1.000000000000000000, 1.224646799147353207E-16 ) ) ;
#108 = FACE_OUTER_BOUND ( 'NONE', #222, .T. ) ;
#109 = AXIS2_PLACEMENT_3D ( 'NONE', #270, #97, #247 ) ;
#110 = ORIENTED_EDGE ( 'NONE', *, *, #93, .T. ) ;
#111 = CARTESIAN_POINT ( 'NONE',  ( -1.609550185713648507E-31, 5.645542082875233653E-33, -4.609934951698629752E-17 ) ) ;
#112 = AXIS2_PLACEMENT_3D ( 'NONE', #180, #249, #220 ) ;
#113 = DIRECTION ( 'NONE',  ( 0.0000000000000000000, 1.000000000000000000, 0.0000000000000000000 ) ) ;
#114 = CC_DESIGN_PERSON_AND_ORGANIZATION_ASSIGNMENT ( #102, #216, ( #131 ) ) ;
#115 = ADVANCED_FACE ( 'NONE', ( #8 ), #68, .F. ) ;
#116 = FACE_OUTER_BOUND ( 'NONE', #143, .T. ) ;
#117 = CIRCLE ( 'NONE', #168, 1.500000000000003331 ) ;
#118 = FACE_OUTER_BOUND ( 'NONE', #101, .T. ) ;
#119 = CIRCLE ( 'NONE', #16, 1.499999999999997113 ) ;
#120 = DIRECTION ( 'NONE',  ( 3.491481338843133355E-15, -1.224646799147352961E-16, 1.000000000000000000 ) ) ;
#121 = PERSON_AND_ORGANIZATION ( #51, #61 ) ;
#122 = APPLICATION_CONTEXT ( 'configuration controlled 3d designs of mechanical parts and assemblies' ) ;
#123 = FACE_OUTER_BOUND ( 'NONE', #228, .T. ) ;
#124 = APPROVAL_ROLE ( '' ) ;
#125 = EDGE_CURVE ( 'NONE', #258, #258, #265, .T. ) ;
#126 = DIRECTION ( 'NONE',  ( -3.491481338843133355E-15, 1.224646799147352961E-16, -1.000000000000000000 ) ) ;
#127 = EDGE_LOOP ( 'NONE', ( #90 ) ) ;
#128 = EDGE_CURVE ( 'NONE', #65, #65, #266, .T. ) ;
#129 = FACE_OUTER_BOUND ( 'NONE', #171, .T. ) ;
#130 = CLOSED_SHELL ( 'NONE', ( #221, #146, #64, #138, #37, #73, #115 ) ) ;
#131 = SECURITY_CLASSIFICATION ( '', '', #133 ) ;
#132 = PERSON_AND_ORGANIZATION_ROLE ( 'design_supplier' ) ;
#133 = SECURITY_CLASSIFICATION_LEVEL ( 'unclassified' ) ;
#134 = CARTESIAN_POINT ( 'NONE',  ( -4.731839565957901202E-32, 0.2657649730810374700, -1.355252715606880543E-17 ) ) ;
#135 = FACE_OUTER_BOUND ( 'NONE', #42, .T. ) ;
#136 = VERTEX_POINT ( 'NONE', #178 ) ;
#137 = FACE_OUTER_BOUND ( 'NONE', #267, .T. ) ;
#138 = ADVANCED_FACE ( 'NONE', ( #41, #135 ), #145, .T. ) ;
#139 = EDGE_LOOP ( 'NONE', ( #55 ) ) ;
#140 = DIRECTION ( 'NONE',  ( 0.0000000000000000000, 0.0000000000000000000, 1.000000000000000000 ) ) ;
#141 =( LENGTH_UNIT ( ) NAMED_UNIT ( * ) SI_UNIT ( .MILLI., .METRE. ) );
#142 = EDGE_LOOP ( 'NONE', ( #159 ) ) ;
#143 = EDGE_LOOP ( 'NONE', ( #243 ) ) ;
#144 = AXIS2_PLACEMENT_3D ( 'NONE', #155, #187, #184 ) ;
#145 = CONICAL_SURFACE ( 'NONE', #229, 1.499999999999997113, 0.1745329251994260922 ) ;
#146 = ADVANCED_FACE ( 'NONE', ( #118, #116 ), #205, .T. ) ;
#147 = APPROVAL_STATUS ( 'not_yet_approved' ) ;
#148 = DIRECTION ( 'NONE',  ( -4.275831445896957731E-31, -1.000000000000000000, -1.224646799147352961E-16 ) ) ;
#149 = FACE_BOUND ( 'NONE', #11, .T. ) ;
#150 = TOROIDAL_SURFACE ( 'NONE', #14, 2.323500000000000121, 2.000000000000000000 ) ;
#151 = AXIS2_PLACEMENT_3D ( 'NONE', #269, #207, #162 ) ;
#152 = CALENDAR_DATE ( 2021, 26, 11 ) ;
#153 = VERTEX_POINT ( 'NONE', #236 ) ;
#154 = CIRCLE ( 'NONE', #12, 1.200000000000003286 ) ;
#155 = CARTESIAN_POINT ( 'NONE',  ( 3.491481338843132369E-16, -1.224646799147352498E-17, 0.09999999999999996392 ) ) ;
#156 = CARTESIAN_POINT ( 'NONE',  ( 2.444036937190193349E-14, 0.3234999999999991216, 7.000000000000000000 ) ) ;
#157 = PLANE ( 'NONE',  #234 ) ;
#158 =( NAMED_UNIT ( * ) PLANE_ANGLE_UNIT ( ) SI_UNIT ( $, .RADIAN. ) );
#159 = ORIENTED_EDGE ( 'NONE', *, *, #128, .F. ) ;
#160 = DIRECTION ( 'NONE',  ( 4.275831445896957731E-31, 1.000000000000000000, 1.224646799147352714E-16 ) ) ;
#161 = ORIENTED_EDGE ( 'NONE', *, *, #278, .T. ) ;
#162 = DIRECTION ( 'NONE',  ( 4.275831445896957731E-31, 1.000000000000000000, 1.224646799147352961E-16 ) ) ;
#163 = DIRECTION ( 'NONE',  ( -3.491481338843133355E-15, 1.224646799147352961E-16, -1.000000000000000000 ) ) ;
#164 = PERSON_AND_ORGANIZATION ( #51, #61 ) ;
#165 = VERTEX_POINT ( 'NONE', #85 ) ;
#166 = PERSON_AND_ORGANIZATION_ROLE ( 'design_owner' ) ;
#167 = CYLINDRICAL_SURFACE ( 'NONE', #60, 1.500000000000000222 ) ;
#168 = AXIS2_PLACEMENT_3D ( 'NONE', #196, #255, #34 ) ;
#169 = CC_DESIGN_APPROVAL ( #63, ( #131 ) ) ;
#170 = DATE_AND_TIME ( #192, #6 ) ;
#171 = EDGE_LOOP ( 'NONE', ( #20 ) ) ;
#172 = PRODUCT_DEFINITION ( 'UNKNOWN', '', #250, #251 ) ;
#173 = ADVANCED_BREP_SHAPE_REPRESENTATION ( '200015', ( #86, #277, #272 ), #275 ) ;
#174 = FACE_OUTER_BOUND ( 'NONE', #248, .T. ) ;
#175 = CARTESIAN_POINT ( 'NONE',  ( 3.491481338843133848E-16, 0.3234999999999991216, 0.1000000000000000056 ) ) ;
#176 = DATE_AND_TIME ( #152, #54 ) ;
#177 = CONICAL_SURFACE ( 'NONE', #46, 1.200000000000003286, 0.7853981633974453924 ) ;
#178 = CARTESIAN_POINT ( 'NONE',  ( 1.396592535537253342E-14, 0.3234999999999991216, 4.000000000000000000 ) ) ;
#179 = DATE_AND_TIME ( #62, #188 ) ;
#180 = CARTESIAN_POINT ( 'NONE',  ( 1.396592535537253342E-14, 2.425861448455543446E-33, 4.000000000000000000 ) ) ;
#181 = AXIS2_PLACEMENT_3D ( 'NONE', #256, #120, #58 ) ;
#182 = FACE_OUTER_BOUND ( 'NONE', #203, .T. ) ;
#183 = ORIENTED_EDGE ( 'NONE', *, *, #4, .F. ) ;
#184 = DIRECTION ( 'NONE',  ( 4.465061694869956095E-31, 1.000000000000000000, 1.256803136575163099E-16 ) ) ;
#185 = CARTESIAN_POINT ( 'NONE',  ( 1.326762908760390423E-13, 8.998558695971099120E-33, 38.00000000000000000 ) ) ;
#186 = EDGE_CURVE ( 'NONE', #240, #240, #154, .T. ) ;
#187 = DIRECTION ( 'NONE',  ( -3.491481338843133355E-15, 1.224646799147352961E-16, -1.000000000000000000 ) ) ;
#188 = LOCAL_TIME ( 15, 47, 22.00000000000000000, #18 ) ;
#189 = ADVANCED_FACE ( 'NONE', ( #182 ), #157, .T. ) ;
#190 = DIRECTION ( 'NONE',  ( 0.0000000000000000000, 1.000000000000000000, 0.0000000000000000000 ) ) ;
#191 = UNCERTAINTY_MEASURE_WITH_UNIT (LENGTH_MEASURE( 1.000000000000000082E-05 ), #141, 'distance_accuracy_value', 'NONE');
#192 = CALENDAR_DATE ( 2021, 26, 11 ) ;
#193 = CALENDAR_DATE ( 2021, 26, 11 ) ;
#194 = FACE_OUTER_BOUND ( 'NONE', #246, .T. ) ;
#195 = CALENDAR_DATE ( 2021, 26, 11 ) ;
#196 = CARTESIAN_POINT ( 'NONE',  ( 1.316288464743861212E-13, -4.616918432785520292E-15, 37.69999999999999574 ) ) ;
#197 = CC_DESIGN_PERSON_AND_ORGANIZATION_ASSIGNMENT ( #164, #166, ( #202 ) ) ;
#198 = DIRECTION ( 'NONE',  ( -3.491481338843133355E-15, 1.224646799147352961E-16, -1.000000000000000000 ) ) ;
#199 = AXIS2_PLACEMENT_3D ( 'NONE', #29, #126, #190 ) ;
#200 = APPROVAL_DATE_TIME ( #176, #22 ) ;
#201 = APPROVAL ( #33, 'UNSPECIFIED' ) ;
#202 = PRODUCT ( '200015', '200015', '', ( #95 ) ) ;
#203 = EDGE_LOOP ( 'NONE', ( #230 ) ) ;
#204 = DIRECTION ( 'NONE',  ( -4.275831445896957731E-31, -1.000000000000000000, -1.224646799147352961E-16 ) ) ;
#205 = CYLINDRICAL_SURFACE ( 'NONE', #151, 0.3234999999999997877 ) ;
#206 = CARTESIAN_POINT ( 'NONE',  ( 1.316288464743861212E-13, 1.499999999999998668, 37.69999999999999574 ) ) ;
#207 = DIRECTION ( 'NONE',  ( -3.491481338843133355E-15, 1.224646799147352961E-16, -1.000000000000000000 ) ) ;
#208 = ORIENTED_EDGE ( 'NONE', *, *, #19, .T. ) ;
#209 = DIRECTION ( 'NONE',  ( 3.491481338843133355E-15, -1.224646799147352961E-16, 1.000000000000000000 ) ) ;
#210 = AXIS2_PLACEMENT_3D ( 'NONE', #185, #244, #226 ) ;
#211 = CC_DESIGN_DATE_AND_TIME_ASSIGNMENT ( #57, #259, ( #172 ) ) ;
#212 = AXIS2_PLACEMENT_3D ( 'NONE', #111, #13, #160 ) ;
#213 = ORIENTED_EDGE ( 'NONE', *, *, #238, .F. ) ;
#214 = FACE_OUTER_BOUND ( 'NONE', #225, .T. ) ;
#215 = LOCAL_TIME ( 15, 47, 22.00000000000000000, #274 ) ;
#216 = PERSON_AND_ORGANIZATION_ROLE ( 'classification_officer' ) ;
#217 = PRODUCT_DEFINITION_SHAPE ( 'NONE', 'NONE',  #172 ) ;
#218 = ORIENTED_EDGE ( 'NONE', *, *, #125, .F. ) ;
#219 = PLANE ( 'NONE',  #112 ) ;
#220 = DIRECTION ( 'NONE',  ( -4.275831445896957731E-31, -1.000000000000000000, -1.224646799147352961E-16 ) ) ;
#221 = ADVANCED_FACE ( 'NONE', ( #98 ), #219, .F. ) ;
#222 = EDGE_LOOP ( 'NONE', ( #161 ) ) ;
#223 = APPROVAL_PERSON_ORGANIZATION ( #224, #22, #124 ) ;
#224 = PERSON_AND_ORGANIZATION ( #51, #61 ) ;
#225 = EDGE_LOOP ( 'NONE', ( #183 ) ) ;
#226 = DIRECTION ( 'NONE',  ( 4.275831445896957731E-31, 1.000000000000000000, 1.224646799147352961E-16 ) ) ;
#227 = ORIENTED_EDGE ( 'NONE', *, *, #186, .T. ) ;
#228 = EDGE_LOOP ( 'NONE', ( #213 ) ) ;
#229 = AXIS2_PLACEMENT_3D ( 'NONE', #70, #209, #72 ) ;
#230 = ORIENTED_EDGE ( 'NONE', *, *, #233, .F. ) ;
#231 = EDGE_LOOP ( 'NONE', ( #110 ) ) ;
#232 = CARTESIAN_POINT ( 'NONE',  ( 1.326762908760390423E-13, -4.653657836759941152E-15, 38.00000000000000000 ) ) ;
#233 = EDGE_CURVE ( 'NONE', #136, #136, #77, .T. ) ;
#234 = AXIS2_PLACEMENT_3D ( 'NONE', #9, #241, #204 ) ;
#235 = APPROVAL_DATE_TIME ( #179, #201 ) ;
#236 = CARTESIAN_POINT ( 'NONE',  ( 4.834738140859152994E-14, 1.499999999999995559, 13.84724038783233091 ) ) ;
#237 = VERTEX_POINT ( 'NONE', #175 ) ;
#238 = EDGE_CURVE ( 'NONE', #153, #153, #119, .T. ) ;
#239 = DIRECTION ( 'NONE',  ( -3.491481338843133355E-15, 1.224646799147352961E-16, -1.000000000000000000 ) ) ;
#240 = VERTEX_POINT ( 'NONE', #261 ) ;
#241 = DIRECTION ( 'NONE',  ( 3.491481338843133355E-15, -1.224646799147352961E-16, 1.000000000000000000 ) ) ;
#242 =( NAMED_UNIT ( * ) SI_UNIT ( $, .STERADIAN. ) SOLID_ANGLE_UNIT ( ) );
#243 = ORIENTED_EDGE ( 'NONE', *, *, #128, .T. ) ;
#244 = DIRECTION ( 'NONE',  ( -3.491481338843133355E-15, 1.224646799147352961E-16, -1.000000000000000000 ) ) ;
#245 = CARTESIAN_POINT ( 'NONE',  ( 0.0000000000000000000, 0.0000000000000000000, 0.0000000000000000000 ) ) ;
#246 = EDGE_LOOP ( 'NONE', ( #78 ) ) ;
#247 = DIRECTION ( 'NONE',  ( 4.275831445896957731E-31, 1.000000000000000000, 1.224646799147352961E-16 ) ) ;
#248 = EDGE_LOOP ( 'NONE', ( #208 ) ) ;
#249 = DIRECTION ( 'NONE',  ( 3.491481338843133355E-15, -1.224646799147352961E-16, 1.000000000000000000 ) ) ;
#250 = PRODUCT_DEFINITION_FORMATION_WITH_SPECIFIED_SOURCE ( 'ANY', '', #202, .NOT_KNOWN. ) ;
#251 = DESIGN_CONTEXT ( 'detailed design', #122, 'design' ) ;
#252 = APPROVAL_DATE_TIME ( #170, #63 ) ;
#253 = CARTESIAN_POINT ( 'NONE',  ( -8.047750928568242536E-32, 2.822771041437616826E-33, -2.304967475849314876E-17 ) ) ;
#254 = PERSON_AND_ORGANIZATION ( #51, #61 ) ;
#255 = DIRECTION ( 'NONE',  ( -3.491481338843133355E-15, 1.224646799147352961E-16, -1.000000000000000000 ) ) ;
#256 = CARTESIAN_POINT ( 'NONE',  ( 3.491481338843132369E-16, -1.224646799147352498E-17, 0.09999999999999996392 ) ) ;
#257 = AXIS2_PLACEMENT_3D ( 'NONE', #273, #94, #113 ) ;
#258 = VERTEX_POINT ( 'NONE', #281 ) ;
#259 = DATE_TIME_ROLE ( 'creation_date' ) ;
#260 = APPROVAL_PERSON_ORGANIZATION ( #279, #201, #17 ) ;
#261 = CARTESIAN_POINT ( 'NONE',  ( 1.326762908760390423E-13, 1.199999999999998845, 38.00000000000000000 ) ) ;
#262 = COORDINATED_UNIVERSAL_TIME_OFFSET ( 1, 0, .AHEAD. ) ;
#263 = CC_DESIGN_DATE_AND_TIME_ASSIGNMENT ( #2, #79, ( #131 ) ) ;
#264 = VERTEX_POINT ( 'NONE', #206 ) ;
#265 = CIRCLE ( 'NONE', #257, 0.3234999999999996212 ) ;
#266 = CIRCLE ( 'NONE', #99, 0.3235000000000000098 ) ;
#267 = EDGE_LOOP ( 'NONE', ( #7 ) ) ;
#268 = CC_DESIGN_PERSON_AND_ORGANIZATION_ASSIGNMENT ( #38, #132, ( #250 ) ) ;
#269 = CARTESIAN_POINT ( 'NONE',  ( 0.0000000000000000000, 0.0000000000000000000, 0.0000000000000000000 ) ) ;
#270 = CARTESIAN_POINT ( 'NONE',  ( 0.0000000000000000000, 0.0000000000000000000, 0.0000000000000000000 ) ) ;
#271 = CONICAL_SURFACE ( 'NONE', #181, 0.3234999999999991216, 0.5235987755982921543 ) ;
#272 = AXIS2_PLACEMENT_3D ( 'NONE', #245, #140, #100 ) ;
#273 = CARTESIAN_POINT ( 'NONE',  ( 1.396592535537253342E-14, -4.898587196589411843E-16, 4.000000000000000000 ) ) ;
#274 = COORDINATED_UNIVERSAL_TIME_OFFSET ( 1, 0, .AHEAD. ) ;
#275 =( GEOMETRIC_REPRESENTATION_CONTEXT ( 3 ) GLOBAL_UNCERTAINTY_ASSIGNED_CONTEXT ( ( #191 ) ) GLOBAL_UNIT_ASSIGNED_CONTEXT ( ( #141, #158, #242 ) ) REPRESENTATION_CONTEXT ( 'NONE', 'WORKASPACE' ) );
#276 = DIRECTION ( 'NONE',  ( -3.491481338843133355E-15, 1.224646799147352961E-16, -1.000000000000000000 ) ) ;
#277 = MANIFOLD_SOLID_BREP ( 'Corps-Déplacer/Copier1[2]', #32 ) ;
#278 = EDGE_CURVE ( 'NONE', #40, #40, #92, .T. ) ;
#279 = PERSON_AND_ORGANIZATION ( #51, #61 ) ;
#280 = FACE_BOUND ( 'NONE', #139, .T. ) ;
#281 = CARTESIAN_POINT ( 'NONE',  ( 1.396592535537253342E-14, 0.3234999999999991216, 4.000000000000000000 ) ) ;
#282 = DIRECTION ( 'NONE',  ( 4.398673099202194760E-31, 1.000000000000000000, 1.224646799147352961E-16 ) ) ;
#283 = AXIS2_PLACEMENT_3D ( 'NONE', #52, #45, #23 ) ;
ENDSEC;
END-ISO-10303-21;
