ISO-10303-21;
HEADER;
FILE_DESCRIPTION (( 'STEP AP203' ),
    '1' );
FILE_NAME ('200014.step',
    '2021-11-26T14:47:22',
    ( '' ),
    ( '' ),
    'SwSTEP 2.0',
    'SolidWorks 2019',
    '' );
FILE_SCHEMA (( 'CONFIG_CONTROL_DESIGN' ));
ENDSEC;

DATA;
#1 = CIRCLE ( 'NONE', #165, 0.3484999999999995324 ) ;
#2 = MECHANICAL_CONTEXT ( 'NONE', #219, 'mechanical' ) ;
#3 = CYLINDRICAL_SURFACE ( 'NONE', #186, 1.500000000000000222 ) ;
#4 = APPROVAL_ROLE ( '' ) ;
#5 = CARTESIAN_POINT ( 'NONE',  ( -6.216310076326410064E-32, 2.180388064168486954E-33, -1.780421967939293416E-17 ) ) ;
#6 = AXIS2_PLACEMENT_3D ( 'NONE', #81, #84, #15 ) ;
#7 = DIRECTION ( 'NONE',  ( 4.275831445896957731E-31, 1.000000000000000000, 1.224646799147353207E-16 ) ) ;
#8 = PERSON_AND_ORGANIZATION ( #205, #113 ) ;
#9 = EDGE_LOOP ( 'NONE', ( #194 ) ) ;
#10 = SHAPE_DEFINITION_REPRESENTATION ( #66, #210 ) ;
#11 = ORIENTED_EDGE ( 'NONE', *, *, #177, .T. ) ;
#12 = DIRECTION ( 'NONE',  ( -4.275831445896957731E-31, -1.000000000000000000, -1.224646799147352961E-16 ) ) ;
#13 = TOROIDAL_SURFACE ( 'NONE', #70, 2.348500000000000032, 2.000000000000000000 ) ;
#14 = DIRECTION ( 'NONE',  ( 0.0000000000000000000, 1.000000000000000000, 0.0000000000000000000 ) ) ;
#15 = DIRECTION ( 'NONE',  ( 4.275831445896957731E-31, 1.000000000000000000, 1.224646799147352961E-16 ) ) ;
#16 = DIRECTION ( 'NONE',  ( 0.0000000000000000000, 1.000000000000000000, 0.0000000000000000000 ) ) ;
#17 = AXIS2_PLACEMENT_3D ( 'NONE', #189, #206, #106 ) ;
#18 = CARTESIAN_POINT ( 'NONE',  ( 0.0000000000000000000, 0.2907649730810373812, 0.0000000000000000000 ) ) ;
#19 =( GEOMETRIC_REPRESENTATION_CONTEXT ( 3 ) GLOBAL_UNCERTAINTY_ASSIGNED_CONTEXT ( ( #31 ) ) GLOBAL_UNIT_ASSIGNED_CONTEXT ( ( #240, #89, #178 ) ) REPRESENTATION_CONTEXT ( 'NONE', 'WORKASPACE' ) );
#20 = CARTESIAN_POINT ( 'NONE',  ( 1.326762908760390423E-13, 1.199999999999998845, 38.00000000000000000 ) ) ;
#21 = PERSON_AND_ORGANIZATION_ROLE ( 'classification_officer' ) ;
#22 = AXIS2_PLACEMENT_3D ( 'NONE', #100, #104, #80 ) ;
#23 = EDGE_LOOP ( 'NONE', ( #98 ) ) ;
#24 = CALENDAR_DATE ( 2021, 26, 11 ) ;
#25 = CYLINDRICAL_SURFACE ( 'NONE', #231, 0.3484999999999993103 ) ;
#26 = CALENDAR_DATE ( 2021, 26, 11 ) ;
#27 = DIRECTION ( 'NONE',  ( 3.491481338843133355E-15, -1.224646799147352961E-16, 1.000000000000000000 ) ) ;
#28 = CONICAL_SURFACE ( 'NONE', #60, 0.3484999999999990883, 0.5235987755982921543 ) ;
#29 = EDGE_LOOP ( 'NONE', ( #271 ) ) ;
#30 = DATE_AND_TIME ( #24, #94 ) ;
#31 = UNCERTAINTY_MEASURE_WITH_UNIT (LENGTH_MEASURE( 1.000000000000000082E-05 ), #240, 'distance_accuracy_value', 'NONE');
#32 = CARTESIAN_POINT ( 'NONE',  ( 0.0000000000000000000, 0.0000000000000000000, 0.0000000000000000000 ) ) ;
#33 = CC_DESIGN_DATE_AND_TIME_ASSIGNMENT ( #97, #123, ( #253 ) ) ;
#34 = PLANE ( 'NONE',  #153 ) ;
#35 = LOCAL_TIME ( 15, 47, 22.00000000000000000, #49 ) ;
#36 = VERTEX_POINT ( 'NONE', #251 ) ;
#37 = CARTESIAN_POINT ( 'NONE',  ( 2.444036937190193349E-14, -8.673617379884035472E-16, 7.000000000000000000 ) ) ;
#38 = DIRECTION ( 'NONE',  ( 4.397966869161345844E-31, 1.000000000000000000, 1.224646799147352961E-16 ) ) ;
#39 = DIRECTION ( 'NONE',  ( -3.491481338843133355E-15, 1.224646799147352961E-16, -1.000000000000000000 ) ) ;
#40 = APPROVAL ( #67, 'UNSPECIFIED' ) ;
#41 = LOCAL_TIME ( 15, 47, 22.00000000000000000, #176 ) ;
#42 = ADVANCED_FACE ( 'NONE', ( #139, #144 ), #28, .T. ) ;
#43 = CARTESIAN_POINT ( 'NONE',  ( 3.491481338843133848E-16, 0.3484999999999990883, 0.1000000000000000056 ) ) ;
#44 = CALENDAR_DATE ( 2021, 26, 11 ) ;
#45 = ADVANCED_FACE ( 'NONE', ( #114, #221 ), #3, .T. ) ;
#46 = PERSON_AND_ORGANIZATION ( #205, #113 ) ;
#47 = CIRCLE ( 'NONE', #282, 1.500000000000003331 ) ;
#48 = EDGE_LOOP ( 'NONE', ( #246 ) ) ;
#49 = COORDINATED_UNIVERSAL_TIME_OFFSET ( 1, 0, .AHEAD. ) ;
#50 = CC_DESIGN_PERSON_AND_ORGANIZATION_ASSIGNMENT ( #8, #244, ( #253 ) ) ;
#51 = EDGE_LOOP ( 'NONE', ( #164 ) ) ;
#52 = APPROVAL_STATUS ( 'not_yet_approved' ) ;
#53 = ORIENTED_EDGE ( 'NONE', *, *, #208, .T. ) ;
#54 = DATE_AND_TIME ( #264, #35 ) ;
#55 = EDGE_LOOP ( 'NONE', ( #122 ) ) ;
#56 = VERTEX_POINT ( 'NONE', #281 ) ;
#57 = ORIENTED_EDGE ( 'NONE', *, *, #177, .F. ) ;
#58 = DIRECTION ( 'NONE',  ( 0.0000000000000000000, -1.000000000000000000, 0.0000000000000000000 ) ) ;
#59 = DIRECTION ( 'NONE',  ( -3.491481338843133355E-15, 1.224646799147352961E-16, -1.000000000000000000 ) ) ;
#60 = AXIS2_PLACEMENT_3D ( 'NONE', #227, #27, #101 ) ;
#61 = CARTESIAN_POINT ( 'NONE',  ( 1.316288464743861212E-13, -4.616918432785520292E-15, 37.69999999999999574 ) ) ;
#62 = DIRECTION ( 'NONE',  ( 0.0000000000000000000, 1.000000000000000000, 0.0000000000000000000 ) ) ;
#63 = ADVANCED_FACE ( 'NONE', ( #185, #273 ), #25, .T. ) ;
#64 = MANIFOLD_SOLID_BREP ( 'Corps-Déplacer/Copier1[2]', #111 ) ;
#65 = CARTESIAN_POINT ( 'NONE',  ( 2.444036937190193349E-14, 0.3484999999999989773, 7.000000000000000000 ) ) ;
#66 = PRODUCT_DEFINITION_SHAPE ( 'NONE', 'NONE',  #253 ) ;
#67 = APPROVAL_STATUS ( 'not_yet_approved' ) ;
#68 = ORIENTED_EDGE ( 'NONE', *, *, #237, .F. ) ;
#69 = MANIFOLD_SOLID_BREP ( 'Corps-Déplacer/Copier1[1]', #107 ) ;
#70 = AXIS2_PLACEMENT_3D ( 'NONE', #37, #190, #38 ) ;
#71 = APPROVAL_STATUS ( 'not_yet_approved' ) ;
#72 = EDGE_LOOP ( 'NONE', ( #184 ) ) ;
#73 = CALENDAR_DATE ( 2021, 26, 11 ) ;
#74 = ADVANCED_FACE ( 'NONE', ( #197 ), #95, .F. ) ;
#75 = ORIENTED_EDGE ( 'NONE', *, *, #203, .F. ) ;
#76 = AXIS2_PLACEMENT_3D ( 'NONE', #156, #115, #119 ) ;
#77 = CARTESIAN_POINT ( 'NONE',  ( 0.0000000000000000000, 0.0000000000000000000, 0.0000000000000000000 ) ) ;
#78 = FACE_OUTER_BOUND ( 'NONE', #72, .T. ) ;
#79 = ADVANCED_FACE ( 'NONE', ( #78 ), #191, .F. ) ;
#80 = DIRECTION ( 'NONE',  ( 0.0000000000000000000, 1.000000000000000000, 0.0000000000000000000 ) ) ;
#81 = CARTESIAN_POINT ( 'NONE',  ( 1.326762908760390423E-13, 8.998558695971099120E-33, 38.00000000000000000 ) ) ;
#82 = PLANE ( 'NONE',  #90 ) ;
#83 = CIRCLE ( 'NONE', #226, 0.3484999999999995324 ) ;
#84 = DIRECTION ( 'NONE',  ( -3.491481338843133355E-15, 1.224646799147352961E-16, -1.000000000000000000 ) ) ;
#85 = ADVANCED_FACE ( 'NONE', ( #280, #86 ), #201, .T. ) ;
#86 = FACE_BOUND ( 'NONE', #55, .T. ) ;
#87 = EDGE_LOOP ( 'NONE', ( #126 ) ) ;
#88 = LOCAL_TIME ( 15, 47, 22.00000000000000000, #159 ) ;
#89 =( NAMED_UNIT ( * ) PLANE_ANGLE_UNIT ( ) SI_UNIT ( $, .RADIAN. ) );
#90 = AXIS2_PLACEMENT_3D ( 'NONE', #270, #125, #167 ) ;
#91 = DIRECTION ( 'NONE',  ( 4.275831445896957731E-31, 1.000000000000000000, 1.224646799147353207E-16 ) ) ;
#92 = PERSON_AND_ORGANIZATION ( #205, #113 ) ;
#93 = EDGE_LOOP ( 'NONE', ( #116 ) ) ;
#94 = LOCAL_TIME ( 15, 47, 22.00000000000000000, #224 ) ;
#95 = PLANE ( 'NONE',  #213 ) ;
#96 = EDGE_CURVE ( 'NONE', #168, #168, #181, .T. ) ;
#97 = DATE_AND_TIME ( #26, #274 ) ;
#98 = ORIENTED_EDGE ( 'NONE', *, *, #258, .T. ) ;
#99 = PERSON_AND_ORGANIZATION_ROLE ( 'design_owner' ) ;
#100 = CARTESIAN_POINT ( 'NONE',  ( 2.444036937190193349E-14, -8.572527594031471218E-16, 7.000000000000000000 ) ) ;
#101 = DIRECTION ( 'NONE',  ( -4.144755977877850240E-31, -1.000000000000000000, -1.166645092344520131E-16 ) ) ;
#102 = EDGE_CURVE ( 'NONE', #232, #232, #192, .T. ) ;
#103 = CARTESIAN_POINT ( 'NONE',  ( -1.243262015265282013E-31, 4.360776128336973908E-33, -3.560843935878586833E-17 ) ) ;
#104 = DIRECTION ( 'NONE',  ( -3.491481338843133355E-15, 1.224646799147352961E-16, -1.000000000000000000 ) ) ;
#105 = DIRECTION ( 'NONE',  ( -3.491481338843133355E-15, 1.224646799147352961E-16, -1.000000000000000000 ) ) ;
#106 = DIRECTION ( 'NONE',  ( 0.0000000000000000000, 1.000000000000000000, 0.0000000000000000000 ) ) ;
#107 = CLOSED_SHELL ( 'NONE', ( #229, #155, #136, #163, #45, #85, #79 ) ) ;
#108 = CC_DESIGN_PERSON_AND_ORGANIZATION_ASSIGNMENT ( #200, #99, ( #152 ) ) ;
#109 = VERTEX_POINT ( 'NONE', #20 ) ;
#110 = CC_DESIGN_APPROVAL ( #40, ( #253 ) ) ;
#111 = CLOSED_SHELL ( 'NONE', ( #74, #42, #63, #131 ) ) ;
#112 = VERTEX_POINT ( 'NONE', #65 ) ;
#113 = ORGANIZATION ( 'UNSPECIFIED', 'UNSPECIFIED', '' ) ;
#114 = FACE_OUTER_BOUND ( 'NONE', #87, .T. ) ;
#115 = DIRECTION ( 'NONE',  ( 0.0000000000000000000, 0.0000000000000000000, 1.000000000000000000 ) ) ;
#116 = ORIENTED_EDGE ( 'NONE', *, *, #279, .T. ) ;
#117 = APPLICATION_PROTOCOL_DEFINITION ( 'international standard', 'config_control_design', 1994, #124 ) ;
#118 = EDGE_LOOP ( 'NONE', ( #141 ) ) ;
#119 = DIRECTION ( 'NONE',  ( 1.000000000000000000, 0.0000000000000000000, 0.0000000000000000000 ) ) ;
#120 = APPROVAL_PERSON_ORGANIZATION ( #267, #40, #180 ) ;
#121 = DESIGN_CONTEXT ( 'detailed design', #124, 'design' ) ;
#122 = ORIENTED_EDGE ( 'NONE', *, *, #217, .T. ) ;
#123 = DATE_TIME_ROLE ( 'creation_date' ) ;
#124 = APPLICATION_CONTEXT ( 'configuration controlled 3d designs of mechanical parts and assemblies' ) ;
#125 = DIRECTION ( 'NONE',  ( 3.491481338843133355E-15, -1.224646799147352961E-16, 1.000000000000000000 ) ) ;
#126 = ORIENTED_EDGE ( 'NONE', *, *, #102, .F. ) ;
#127 = FACE_BOUND ( 'NONE', #9, .T. ) ;
#128 = CARTESIAN_POINT ( 'NONE',  ( 3.491481338843132369E-16, -1.224646799147352498E-17, 0.09999999999999996392 ) ) ;
#129 = CARTESIAN_POINT ( 'NONE',  ( 1.326762908760390423E-13, -4.653657836759941152E-15, 38.00000000000000000 ) ) ;
#130 = CARTESIAN_POINT ( 'NONE',  ( 1.396592535537253342E-14, -4.898587196589411843E-16, 4.000000000000000000 ) ) ;
#131 = ADVANCED_FACE ( 'NONE', ( #256 ), #34, .T. ) ;
#132 = CONICAL_SURFACE ( 'NONE', #238, 1.499999999999997113, 0.1745329251994260367 ) ;
#133 = PRODUCT_DEFINITION_FORMATION_WITH_SPECIFIED_SOURCE ( 'ANY', '', #152, .NOT_KNOWN. ) ;
#134 = VERTEX_POINT ( 'NONE', #216 ) ;
#135 = EDGE_LOOP ( 'NONE', ( #53 ) ) ;
#136 = ADVANCED_FACE ( 'NONE', ( #235, #212 ), #13, .F. ) ;
#137 = CC_DESIGN_APPROVAL ( #215, ( #138 ) ) ;
#138 = SECURITY_CLASSIFICATION ( '', '', #154 ) ;
#139 = FACE_BOUND ( 'NONE', #263, .T. ) ;
#140 = APPLICATION_PROTOCOL_DEFINITION ( 'international standard', 'config_control_design', 1994, #219 ) ;
#141 = ORIENTED_EDGE ( 'NONE', *, *, #279, .F. ) ;
#142 = DATE_AND_TIME ( #73, #88 ) ;
#143 = AXIS2_PLACEMENT_3D ( 'NONE', #278, #255, #149 ) ;
#144 = FACE_OUTER_BOUND ( 'NONE', #223, .T. ) ;
#145 = ORIENTED_EDGE ( 'NONE', *, *, #208, .F. ) ;
#146 = CC_DESIGN_PERSON_AND_ORGANIZATION_ASSIGNMENT ( #46, #21, ( #138 ) ) ;
#147 = CIRCLE ( 'NONE', #236, 0.2907649730810373812 ) ;
#148 = FACE_OUTER_BOUND ( 'NONE', #252, .T. ) ;
#149 = DIRECTION ( 'NONE',  ( 0.0000000000000000000, 1.000000000000000000, 0.0000000000000000000 ) ) ;
#150 = CARTESIAN_POINT ( 'NONE',  ( 0.0000000000000000000, 0.0000000000000000000, 0.0000000000000000000 ) ) ;
#151 = APPROVAL_PERSON_ORGANIZATION ( #262, #196, #4 ) ;
#152 = PRODUCT ( '200014', '200014', '', ( #2 ) ) ;
#153 = AXIS2_PLACEMENT_3D ( 'NONE', #234, #173, #12 ) ;
#154 = SECURITY_CLASSIFICATION_LEVEL ( 'unclassified' ) ;
#155 = ADVANCED_FACE ( 'NONE', ( #148, #254 ), #172, .T. ) ;
#156 = CARTESIAN_POINT ( 'NONE',  ( 0.0000000000000000000, 0.0000000000000000000, 0.0000000000000000000 ) ) ;
#157 = AXIS2_PLACEMENT_3D ( 'NONE', #129, #209, #260 ) ;
#158 = ORIENTED_EDGE ( 'NONE', *, *, #237, .T. ) ;
#159 = COORDINATED_UNIVERSAL_TIME_OFFSET ( 1, 0, .AHEAD. ) ;
#160 = EDGE_LOOP ( 'NONE', ( #57 ) ) ;
#161 = COORDINATED_UNIVERSAL_TIME_OFFSET ( 1, 0, .AHEAD. ) ;
#162 = CARTESIAN_POINT ( 'NONE',  ( 1.396592535537253342E-14, -4.898587196589411843E-16, 4.000000000000000000 ) ) ;
#163 = ADVANCED_FACE ( 'NONE', ( #127, #233 ), #132, .T. ) ;
#164 = ORIENTED_EDGE ( 'NONE', *, *, #258, .F. ) ;
#165 = AXIS2_PLACEMENT_3D ( 'NONE', #162, #188, #14 ) ;
#166 = DIRECTION ( 'NONE',  ( -3.491481338843133355E-15, 1.224646799147352961E-16, -1.000000000000000000 ) ) ;
#167 = DIRECTION ( 'NONE',  ( -4.275831445896957731E-31, -1.000000000000000000, -1.224646799147352961E-16 ) ) ;
#168 = VERTEX_POINT ( 'NONE', #272 ) ;
#169 = DIRECTION ( 'NONE',  ( 3.491481338843133355E-15, -1.224646799147352961E-16, 1.000000000000000000 ) ) ;
#170 = CARTESIAN_POINT ( 'NONE',  ( 4.785235204257862721E-14, 1.499999999999995559, 13.70545834234188298 ) ) ;
#171 = CC_DESIGN_APPROVAL ( #196, ( #133 ) ) ;
#172 = CYLINDRICAL_SURFACE ( 'NONE', #218, 0.3484999999999996989 ) ;
#173 = DIRECTION ( 'NONE',  ( 3.491481338843133355E-15, -1.224646799147352961E-16, 1.000000000000000000 ) ) ;
#174 = DIRECTION ( 'NONE',  ( -3.491481338843133355E-15, 1.224646799147352961E-16, -1.000000000000000000 ) ) ;
#175 = CC_DESIGN_SECURITY_CLASSIFICATION ( #138, ( #133 ) ) ;
#176 = COORDINATED_UNIVERSAL_TIME_OFFSET ( 1, 0, .AHEAD. ) ;
#177 = EDGE_CURVE ( 'NONE', #36, #36, #47, .T. ) ;
#178 =( NAMED_UNIT ( * ) SI_UNIT ( $, .STERADIAN. ) SOLID_ANGLE_UNIT ( ) );
#179 = CC_DESIGN_PERSON_AND_ORGANIZATION_ASSIGNMENT ( #183, #269, ( #133 ) ) ;
#180 = APPROVAL_ROLE ( '' ) ;
#181 = CIRCLE ( 'NONE', #242, 0.3788844939755814378 ) ;
#182 = DIRECTION ( 'NONE',  ( 3.491481338843133355E-15, -1.224646799147352961E-16, 1.000000000000000000 ) ) ;
#183 = PERSON_AND_ORGANIZATION ( #205, #113 ) ;
#184 = ORIENTED_EDGE ( 'NONE', *, *, #217, .F. ) ;
#185 = FACE_OUTER_BOUND ( 'NONE', #266, .T. ) ;
#186 = AXIS2_PLACEMENT_3D ( 'NONE', #32, #199, #7 ) ;
#187 = DIRECTION ( 'NONE',  ( -3.491481338843133355E-15, 1.224646799147352961E-16, -1.000000000000000000 ) ) ;
#188 = DIRECTION ( 'NONE',  ( -3.491481338843133355E-15, 1.224646799147352961E-16, -1.000000000000000000 ) ) ;
#189 = CARTESIAN_POINT ( 'NONE',  ( 1.326762908760390423E-13, -4.653657836759941152E-15, 38.00000000000000000 ) ) ;
#190 = DIRECTION ( 'NONE',  ( -3.491481338843133355E-15, 1.224646799147352961E-16, -1.000000000000000000 ) ) ;
#191 = PLANE ( 'NONE',  #6 ) ;
#192 = CIRCLE ( 'NONE', #143, 1.499999999999997113 ) ;
#193 = VERTEX_POINT ( 'NONE', #18 ) ;
#194 = ORIENTED_EDGE ( 'NONE', *, *, #96, .F. ) ;
#195 = PERSON_AND_ORGANIZATION_ROLE ( 'design_supplier' ) ;
#196 = APPROVAL ( #71, 'UNSPECIFIED' ) ;
#197 = FACE_OUTER_BOUND ( 'NONE', #135, .T. ) ;
#198 = PERSON_AND_ORGANIZATION ( #205, #113 ) ;
#199 = DIRECTION ( 'NONE',  ( -3.491481338843133355E-15, 1.224646799147352961E-16, -1.000000000000000000 ) ) ;
#200 = PERSON_AND_ORGANIZATION ( #205, #113 ) ;
#201 = CONICAL_SURFACE ( 'NONE', #17, 1.200000000000003286, 0.7853981633974453924 ) ;
#202 = EDGE_LOOP ( 'NONE', ( #249 ) ) ;
#203 = EDGE_CURVE ( 'NONE', #56, #56, #83, .T. ) ;
#204 = APPROVAL_DATE_TIME ( #30, #215 ) ;
#205 = PERSON ( 'UNSPECIFIED', 'UNSPECIFIED', 'UNSPECIFIED', ('UNSPECIFIED'), ('UNSPECIFIED'), ('UNSPECIFIED') ) ;
#206 = DIRECTION ( 'NONE',  ( -3.491481338843133355E-15, 1.224646799147352961E-16, -1.000000000000000000 ) ) ;
#207 = DIRECTION ( 'NONE',  ( -3.491481338843133355E-15, 1.224646799147352961E-16, -1.000000000000000000 ) ) ;
#208 = EDGE_CURVE ( 'NONE', #193, #193, #147, .T. ) ;
#209 = DIRECTION ( 'NONE',  ( -3.491481338843133355E-15, 1.224646799147352961E-16, -1.000000000000000000 ) ) ;
#210 = ADVANCED_BREP_SHAPE_REPRESENTATION ( '200014', ( #69, #64, #76 ), #19 ) ;
#211 = CARTESIAN_POINT ( 'NONE',  ( 4.785235204257862721E-14, -1.678434568979637317E-15, 13.70545834234188298 ) ) ;
#212 = FACE_OUTER_BOUND ( 'NONE', #29, .T. ) ;
#213 = AXIS2_PLACEMENT_3D ( 'NONE', #5, #182, #268 ) ;
#214 = CARTESIAN_POINT ( 'NONE',  ( 2.565294811559829736E-14, -8.997842963946609330E-16, 7.347296355333847728 ) ) ;
#215 = APPROVAL ( #52, 'UNSPECIFIED' ) ;
#216 = CARTESIAN_POINT ( 'NONE',  ( 1.396592535537253342E-14, 0.3484999999999990328, 4.000000000000000000 ) ) ;
#217 = EDGE_CURVE ( 'NONE', #109, #109, #259, .T. ) ;
#218 = AXIS2_PLACEMENT_3D ( 'NONE', #150, #105, #228 ) ;
#219 = APPLICATION_CONTEXT ( 'configuration controlled 3d designs of mechanical parts and assemblies' ) ;
#220 = CIRCLE ( 'NONE', #22, 0.3484999999999998654 ) ;
#221 = FACE_OUTER_BOUND ( 'NONE', #243, .T. ) ;
#222 = APPROVAL_DATE_TIME ( #241, #40 ) ;
#223 = EDGE_LOOP ( 'NONE', ( #158 ) ) ;
#224 = COORDINATED_UNIVERSAL_TIME_OFFSET ( 1, 0, .AHEAD. ) ;
#225 = APPROVAL_ROLE ( '' ) ;
#226 = AXIS2_PLACEMENT_3D ( 'NONE', #130, #39, #230 ) ;
#227 = CARTESIAN_POINT ( 'NONE',  ( 3.491481338843132369E-16, -1.224646799147352498E-17, 0.09999999999999996392 ) ) ;
#228 = DIRECTION ( 'NONE',  ( 4.275831445896956855E-31, 1.000000000000000000, 1.224646799147352961E-16 ) ) ;
#229 = ADVANCED_FACE ( 'NONE', ( #275 ), #82, .F. ) ;
#230 = DIRECTION ( 'NONE',  ( 0.0000000000000000000, 1.000000000000000000, 0.0000000000000000000 ) ) ;
#231 = AXIS2_PLACEMENT_3D ( 'NONE', #77, #166, #91 ) ;
#232 = VERTEX_POINT ( 'NONE', #170 ) ;
#233 = FACE_OUTER_BOUND ( 'NONE', #48, .T. ) ;
#234 = CARTESIAN_POINT ( 'NONE',  ( 1.396592535537253342E-14, 2.613331421288274962E-33, 4.000000000000000000 ) ) ;
#235 = FACE_OUTER_BOUND ( 'NONE', #118, .T. ) ;
#236 = AXIS2_PLACEMENT_3D ( 'NONE', #103, #187, #277 ) ;
#237 = EDGE_CURVE ( 'NONE', #239, #239, #250, .T. ) ;
#238 = AXIS2_PLACEMENT_3D ( 'NONE', #211, #169, #58 ) ;
#239 = VERTEX_POINT ( 'NONE', #43 ) ;
#240 =( LENGTH_UNIT ( ) NAMED_UNIT ( * ) SI_UNIT ( .MILLI., .METRE. ) );
#241 = DATE_AND_TIME ( #44, #41 ) ;
#242 = AXIS2_PLACEMENT_3D ( 'NONE', #214, #174, #62 ) ;
#243 = EDGE_LOOP ( 'NONE', ( #11 ) ) ;
#244 = PERSON_AND_ORGANIZATION_ROLE ( 'creator' ) ;
#245 = DATE_TIME_ROLE ( 'classification_date' ) ;
#246 = ORIENTED_EDGE ( 'NONE', *, *, #102, .T. ) ;
#247 = APPROVAL_DATE_TIME ( #54, #196 ) ;
#248 = DIRECTION ( 'NONE',  ( 4.144755977877850240E-31, 1.000000000000000000, 1.166645092344520131E-16 ) ) ;
#249 = ORIENTED_EDGE ( 'NONE', *, *, #203, .T. ) ;
#250 = CIRCLE ( 'NONE', #257, 0.3484999999999990883 ) ;
#251 = CARTESIAN_POINT ( 'NONE',  ( 1.316288464743861212E-13, 1.499999999999998668, 37.69999999999999574 ) ) ;
#252 = EDGE_LOOP ( 'NONE', ( #75 ) ) ;
#253 = PRODUCT_DEFINITION ( 'UNKNOWN', '', #133, #121 ) ;
#254 = FACE_OUTER_BOUND ( 'NONE', #93, .T. ) ;
#255 = DIRECTION ( 'NONE',  ( -3.491481338843133355E-15, 1.224646799147352961E-16, -1.000000000000000000 ) ) ;
#256 = FACE_OUTER_BOUND ( 'NONE', #51, .T. ) ;
#257 = AXIS2_PLACEMENT_3D ( 'NONE', #128, #207, #248 ) ;
#258 = EDGE_CURVE ( 'NONE', #134, #134, #1, .T. ) ;
#259 = CIRCLE ( 'NONE', #157, 1.200000000000003286 ) ;
#260 = DIRECTION ( 'NONE',  ( 0.0000000000000000000, 1.000000000000000000, 0.0000000000000000000 ) ) ;
#261 = PRODUCT_RELATED_PRODUCT_CATEGORY ( 'detail', '', ( #152 ) ) ;
#262 = PERSON_AND_ORGANIZATION ( #205, #113 ) ;
#263 = EDGE_LOOP ( 'NONE', ( #145 ) ) ;
#264 = CALENDAR_DATE ( 2021, 26, 11 ) ;
#265 = APPROVAL_PERSON_ORGANIZATION ( #92, #215, #225 ) ;
#266 = EDGE_LOOP ( 'NONE', ( #68 ) ) ;
#267 = PERSON_AND_ORGANIZATION ( #205, #113 ) ;
#268 = DIRECTION ( 'NONE',  ( -4.275831445896957731E-31, -1.000000000000000000, -1.224646799147352961E-16 ) ) ;
#269 = PERSON_AND_ORGANIZATION_ROLE ( 'creator' ) ;
#270 = CARTESIAN_POINT ( 'NONE',  ( 1.396592535537253342E-14, 2.613331421288274962E-33, 4.000000000000000000 ) ) ;
#271 = ORIENTED_EDGE ( 'NONE', *, *, #96, .T. ) ;
#272 = CARTESIAN_POINT ( 'NONE',  ( 2.565294811559829736E-14, 0.3788844939755804941, 7.347296355333847728 ) ) ;
#273 = FACE_OUTER_BOUND ( 'NONE', #23, .T. ) ;
#274 = LOCAL_TIME ( 15, 47, 22.00000000000000000, #161 ) ;
#275 = FACE_OUTER_BOUND ( 'NONE', #202, .T. ) ;
#276 = CC_DESIGN_DATE_AND_TIME_ASSIGNMENT ( #142, #245, ( #138 ) ) ;
#277 = DIRECTION ( 'NONE',  ( 4.275831445896957731E-31, 1.000000000000000000, 1.224646799147352961E-16 ) ) ;
#278 = CARTESIAN_POINT ( 'NONE',  ( 4.785235204257862721E-14, -1.678434568979637317E-15, 13.70545834234188298 ) ) ;
#279 = EDGE_CURVE ( 'NONE', #112, #112, #220, .T. ) ;
#280 = FACE_OUTER_BOUND ( 'NONE', #160, .T. ) ;
#281 = CARTESIAN_POINT ( 'NONE',  ( 1.396592535537253342E-14, 0.3484999999999990328, 4.000000000000000000 ) ) ;
#282 = AXIS2_PLACEMENT_3D ( 'NONE', #61, #59, #16 ) ;
#283 = CC_DESIGN_PERSON_AND_ORGANIZATION_ASSIGNMENT ( #198, #195, ( #133 ) ) ;
ENDSEC;
END-ISO-10303-21;
