ISO-10303-21;
HEADER;
FILE_DESCRIPTION (( 'STEP AP203' ),
    '1' );
FILE_NAME ('200013.step',
    '2021-11-26T14:47:21',
    ( '' ),
    ( '' ),
    'SwSTEP 2.0',
    'SolidWorks 2019',
    '' );
FILE_SCHEMA (( 'CONFIG_CONTROL_DESIGN' ));
ENDSEC;

DATA;
#1 = FACE_OUTER_BOUND ( 'NONE', #67, .T. ) ;
#2 = AXIS2_PLACEMENT_3D ( 'NONE', #63, #180, #236 ) ;
#3 = CARTESIAN_POINT ( 'NONE',  ( 2.565294811559829420E-14, -8.997842963946609330E-16, 7.347296355333846840 ) ) ;
#4 = EDGE_LOOP ( 'NONE', ( #266 ) ) ;
#5 = VERTEX_POINT ( 'NONE', #58 ) ;
#6 = ADVANCED_FACE ( 'NONE', ( #176 ), #85, .F. ) ;
#7 = PRODUCT_DEFINITION ( 'UNKNOWN', '', #217, #234 ) ;
#8 = PRODUCT_DEFINITION_SHAPE ( 'NONE', 'NONE',  #7 ) ;
#9 = DIRECTION ( 'NONE',  ( 4.275831445896957731E-31, 1.000000000000000000, 1.224646799147352961E-16 ) ) ;
#10 = VERTEX_POINT ( 'NONE', #27 ) ;
#11 = EDGE_CURVE ( 'NONE', #62, #62, #46, .T. ) ;
#12 = VERTEX_POINT ( 'NONE', #271 ) ;
#13 = DIRECTION ( 'NONE',  ( 4.267200763044107418E-31, 1.000000000000000000, 1.201110235397533648E-16 ) ) ;
#14 = DATE_AND_TIME ( #41, #77 ) ;
#15 = LOCAL_TIME ( 15, 47, 21.00000000000000000, #160 ) ;
#16 = CARTESIAN_POINT ( 'NONE',  ( -3.636598721052613142E-32, 1.275547124933532650E-33, -1.041563270178486237E-17 ) ) ;
#17 = PERSON_AND_ORGANIZATION ( #231, #186 ) ;
#18 = EDGE_LOOP ( 'NONE', ( #150 ) ) ;
#19 = CALENDAR_DATE ( 2021, 26, 11 ) ;
#20 = COORDINATED_UNIVERSAL_TIME_OFFSET ( 1, 0, .AHEAD. ) ;
#21 = PRODUCT_RELATED_PRODUCT_CATEGORY ( 'detail', '', ( #57 ) ) ;
#22 = CIRCLE ( 'NONE', #71, 0.3384999999999997455 ) ;
#23 = FACE_OUTER_BOUND ( 'NONE', #126, .T. ) ;
#24 = DIRECTION ( 'NONE',  ( -3.491481338843133355E-15, 1.224646799147352961E-16, -1.000000000000000000 ) ) ;
#25 = AXIS2_PLACEMENT_3D ( 'NONE', #3, #86, #197 ) ;
#26 = FACE_OUTER_BOUND ( 'NONE', #275, .T. ) ;
#27 = CARTESIAN_POINT ( 'NONE',  ( 2.565294811559829420E-14, 0.3688844939755809293, 7.347296355333846840 ) ) ;
#28 = APPROVAL_PERSON_ORGANIZATION ( #277, #52, #222 ) ;
#29 = CARTESIAN_POINT ( 'NONE',  ( 1.326762908760390423E-13, 1.199999999999998845, 38.00000000000000000 ) ) ;
#30 = EDGE_CURVE ( 'NONE', #65, #65, #179, .T. ) ;
#31 = DIRECTION ( 'NONE',  ( 0.0000000000000000000, 1.000000000000000000, 0.0000000000000000000 ) ) ;
#32 = DIRECTION ( 'NONE',  ( 0.0000000000000000000, 1.000000000000000000, 0.0000000000000000000 ) ) ;
#33 = SECURITY_CLASSIFICATION_LEVEL ( 'unclassified' ) ;
#34 = EDGE_CURVE ( 'NONE', #175, #175, #164, .T. ) ;
#35 = DIRECTION ( 'NONE',  ( 4.275831445896956855E-31, 1.000000000000000000, 1.224646799147352714E-16 ) ) ;
#36 = CLOSED_SHELL ( 'NONE', ( #6, #78, #44, #200 ) ) ;
#37 = PERSON_AND_ORGANIZATION_ROLE ( 'creator' ) ;
#38 = DIRECTION ( 'NONE',  ( -4.275831445896957731E-31, -1.000000000000000000, -1.224646799147352961E-16 ) ) ;
#39 = PERSON_AND_ORGANIZATION ( #231, #186 ) ;
#40 = FACE_OUTER_BOUND ( 'NONE', #250, .T. ) ;
#41 = CALENDAR_DATE ( 2021, 26, 11 ) ;
#42 = DIRECTION ( 'NONE',  ( 0.0000000000000000000, -1.000000000000000000, 0.0000000000000000000 ) ) ;
#43 = AXIS2_PLACEMENT_3D ( 'NONE', #81, #248, #216 ) ;
#44 = ADVANCED_FACE ( 'NONE', ( #88, #140 ), #181, .T. ) ;
#45 = LOCAL_TIME ( 15, 47, 21.00000000000000000, #20 ) ;
#46 = CIRCLE ( 'NONE', #2, 0.2807649730810374833 ) ;
#47 = CC_DESIGN_PERSON_AND_ORGANIZATION_ASSIGNMENT ( #240, #37, ( #217 ) ) ;
#48 = DATE_AND_TIME ( #226, #45 ) ;
#49 = DIRECTION ( 'NONE',  ( -4.267200763044107418E-31, -1.000000000000000000, -1.201110235397533648E-16 ) ) ;
#50 = ORIENTED_EDGE ( 'NONE', *, *, #30, .T. ) ;
#51 = FACE_BOUND ( 'NONE', #4, .T. ) ;
#52 = APPROVAL ( #91, 'UNSPECIFIED' ) ;
#53 = ORIENTED_EDGE ( 'NONE', *, *, #11, .T. ) ;
#54 = ADVANCED_FACE ( 'NONE', ( #51, #40 ), #249, .T. ) ;
#55 = FACE_OUTER_BOUND ( 'NONE', #155, .T. ) ;
#56 = CIRCLE ( 'NONE', #25, 0.3688844939755818175 ) ;
#57 = PRODUCT ( '200013', '200013', '', ( #238 ) ) ;
#58 = CARTESIAN_POINT ( 'NONE',  ( 2.444036937190193349E-14, 0.3384999999999994125, 7.000000000000000000 ) ) ;
#59 = CARTESIAN_POINT ( 'NONE',  ( 0.0000000000000000000, 0.0000000000000000000, 0.0000000000000000000 ) ) ;
#60 = ORIENTED_EDGE ( 'NONE', *, *, #34, .F. ) ;
#61 = CC_DESIGN_SECURITY_CLASSIFICATION ( #70, ( #217 ) ) ;
#62 = VERTEX_POINT ( 'NONE', #232 ) ;
#63 = CARTESIAN_POINT ( 'NONE',  ( -7.273197442105226285E-32, 2.551094249867065300E-33, -2.083126540356972473E-17 ) ) ;
#64 = AXIS2_PLACEMENT_3D ( 'NONE', #143, #99, #49 ) ;
#65 = VERTEX_POINT ( 'NONE', #170 ) ;
#66 = ADVANCED_BREP_SHAPE_REPRESENTATION ( '200013', ( #97, #280, #124 ), #108 ) ;
#67 = EDGE_LOOP ( 'NONE', ( #80 ) ) ;
#68 = ADVANCED_FACE ( 'NONE', ( #262, #23 ), #241, .F. ) ;
#69 = DATE_TIME_ROLE ( 'creation_date' ) ;
#70 = SECURITY_CLASSIFICATION ( '', '', #33 ) ;
#71 = AXIS2_PLACEMENT_3D ( 'NONE', #102, #185, #119 ) ;
#72 = DIRECTION ( 'NONE',  ( 1.000000000000000000, 0.0000000000000000000, 0.0000000000000000000 ) ) ;
#73 = DIRECTION ( 'NONE',  ( 4.398248384485223847E-31, 1.000000000000000000, 1.224646799147352961E-16 ) ) ;
#74 = EDGE_CURVE ( 'NONE', #12, #12, #92, .T. ) ;
#75 = DIRECTION ( 'NONE',  ( -3.491481338843133355E-15, 1.224646799147352961E-16, -1.000000000000000000 ) ) ;
#76 = CARTESIAN_POINT ( 'NONE',  ( 4.805036378898378956E-14, -1.685379886107094895E-15, 13.76217116053805967 ) ) ;
#77 = LOCAL_TIME ( 15, 47, 21.00000000000000000, #202 ) ;
#78 = ADVANCED_FACE ( 'NONE', ( #146, #278 ), #123, .T. ) ;
#79 = CC_DESIGN_PERSON_AND_ORGANIZATION_ASSIGNMENT ( #199, #242, ( #70 ) ) ;
#80 = ORIENTED_EDGE ( 'NONE', *, *, #121, .T. ) ;
#81 = CARTESIAN_POINT ( 'NONE',  ( 0.0000000000000000000, 0.0000000000000000000, 0.0000000000000000000 ) ) ;
#82 = AXIS2_PLACEMENT_3D ( 'NONE', #76, #261, #42 ) ;
#83 = LOCAL_TIME ( 15, 47, 21.00000000000000000, #182 ) ;
#84 = PLANE ( 'NONE',  #213 ) ;
#85 = PLANE ( 'NONE',  #145 ) ;
#86 = DIRECTION ( 'NONE',  ( -3.491481338843133355E-15, 1.224646799147352961E-16, -1.000000000000000000 ) ) ;
#87 = DIRECTION ( 'NONE',  ( 0.0000000000000000000, 0.0000000000000000000, 1.000000000000000000 ) ) ;
#88 = FACE_OUTER_BOUND ( 'NONE', #252, .T. ) ;
#89 = CARTESIAN_POINT ( 'NONE',  ( 0.0000000000000000000, 0.0000000000000000000, 0.0000000000000000000 ) ) ;
#90 = DIRECTION ( 'NONE',  ( -3.491481338843133355E-15, 1.224646799147352961E-16, -1.000000000000000000 ) ) ;
#91 = APPROVAL_STATUS ( 'not_yet_approved' ) ;
#92 = CIRCLE ( 'NONE', #208, 0.3384999999999997455 ) ;
#93 = APPLICATION_PROTOCOL_DEFINITION ( 'international standard', 'config_control_design', 1994, #142 ) ;
#94 = DIRECTION ( 'NONE',  ( 0.0000000000000000000, 1.000000000000000000, 0.0000000000000000000 ) ) ;
#95 = DIRECTION ( 'NONE',  ( -3.491481338843133355E-15, 1.224646799147352961E-16, -1.000000000000000000 ) ) ;
#96 = SHAPE_DEFINITION_REPRESENTATION ( #8, #66 ) ;
#97 = MANIFOLD_SOLID_BREP ( 'Corps-Déplacer/Copier1[1]', #191 ) ;
#98 = APPROVAL_DATE_TIME ( #48, #52 ) ;
#99 = DIRECTION ( 'NONE',  ( 3.491481338843133355E-15, -1.224646799147352961E-16, 1.000000000000000000 ) ) ;
#100 = EDGE_LOOP ( 'NONE', ( #158 ) ) ;
#101 = AXIS2_PLACEMENT_3D ( 'NONE', #162, #24, #73 ) ;
#102 = CARTESIAN_POINT ( 'NONE',  ( 1.396592535537253342E-14, -4.898587196589411843E-16, 4.000000000000000000 ) ) ;
#103 = FACE_OUTER_BOUND ( 'NONE', #272, .T. ) ;
#104 =( NAMED_UNIT ( * ) SI_UNIT ( $, .STERADIAN. ) SOLID_ANGLE_UNIT ( ) );
#105 = CC_DESIGN_APPROVAL ( #122, ( #217 ) ) ;
#106 = DIRECTION ( 'NONE',  ( 3.491481338843133355E-15, -1.224646799147352961E-16, 1.000000000000000000 ) ) ;
#107 = AXIS2_PLACEMENT_3D ( 'NONE', #192, #144, #94 ) ;
#108 =( GEOMETRIC_REPRESENTATION_CONTEXT ( 3 ) GLOBAL_UNCERTAINTY_ASSIGNED_CONTEXT ( ( #177 ) ) GLOBAL_UNIT_ASSIGNED_CONTEXT ( ( #128, #253, #104 ) ) REPRESENTATION_CONTEXT ( 'NONE', 'WORKASPACE' ) );
#109 = ADVANCED_FACE ( 'NONE', ( #246, #117 ), #224, .T. ) ;
#110 = CARTESIAN_POINT ( 'NONE',  ( 3.491481338843134341E-16, 0.3384999999999991904, 0.1000000000000000194 ) ) ;
#111 = EDGE_LOOP ( 'NONE', ( #53 ) ) ;
#112 = VERTEX_POINT ( 'NONE', #156 ) ;
#113 = DIRECTION ( 'NONE',  ( -3.491481338843133355E-15, 1.224646799147352961E-16, -1.000000000000000000 ) ) ;
#114 = PERSON_AND_ORGANIZATION ( #231, #186 ) ;
#115 = DIRECTION ( 'NONE',  ( 3.491481338843133355E-15, -1.224646799147352961E-16, 1.000000000000000000 ) ) ;
#116 = PERSON_AND_ORGANIZATION_ROLE ( 'design_owner' ) ;
#117 = FACE_BOUND ( 'NONE', #129, .T. ) ;
#118 = PERSON_AND_ORGANIZATION_ROLE ( 'creator' ) ;
#119 = DIRECTION ( 'NONE',  ( 0.0000000000000000000, 1.000000000000000000, 0.0000000000000000000 ) ) ;
#120 = DIRECTION ( 'NONE',  ( 0.0000000000000000000, 1.000000000000000000, 0.0000000000000000000 ) ) ;
#121 = EDGE_CURVE ( 'NONE', #131, #131, #22, .T. ) ;
#122 = APPROVAL ( #223, 'UNSPECIFIED' ) ;
#123 = CONICAL_SURFACE ( 'NONE', #64, 0.3384999999999991904, 0.5235987755982921543 ) ;
#124 = AXIS2_PLACEMENT_3D ( 'NONE', #89, #87, #72 ) ;
#125 = ADVANCED_FACE ( 'NONE', ( #1 ), #227, .F. ) ;
#126 = EDGE_LOOP ( 'NONE', ( #254 ) ) ;
#127 = AXIS2_PLACEMENT_3D ( 'NONE', #201, #90, #32 ) ;
#128 =( LENGTH_UNIT ( ) NAMED_UNIT ( * ) SI_UNIT ( .MILLI., .METRE. ) );
#129 = EDGE_LOOP ( 'NONE', ( #171 ) ) ;
#130 = EDGE_CURVE ( 'NONE', #153, #153, #283, .T. ) ;
#131 = VERTEX_POINT ( 'NONE', #214 ) ;
#132 = CC_DESIGN_APPROVAL ( #52, ( #70 ) ) ;
#133 = FACE_OUTER_BOUND ( 'NONE', #148, .T. ) ;
#134 = EDGE_LOOP ( 'NONE', ( #168 ) ) ;
#135 = CC_DESIGN_DATE_AND_TIME_ASSIGNMENT ( #14, #69, ( #7 ) ) ;
#136 = DATE_AND_TIME ( #19, #15 ) ;
#137 = ORIENTED_EDGE ( 'NONE', *, *, #174, .F. ) ;
#138 = AXIS2_PLACEMENT_3D ( 'NONE', #267, #75, #120 ) ;
#139 = CALENDAR_DATE ( 2021, 26, 11 ) ;
#140 = FACE_OUTER_BOUND ( 'NONE', #247, .T. ) ;
#141 = APPLICATION_PROTOCOL_DEFINITION ( 'international standard', 'config_control_design', 1994, #212 ) ;
#142 = APPLICATION_CONTEXT ( 'configuration controlled 3d designs of mechanical parts and assemblies' ) ;
#143 = CARTESIAN_POINT ( 'NONE',  ( 3.491481338843132862E-16, -1.224646799147352653E-17, 0.09999999999999997780 ) ) ;
#144 = DIRECTION ( 'NONE',  ( -3.491481338843133355E-15, 1.224646799147352961E-16, -1.000000000000000000 ) ) ;
#145 = AXIS2_PLACEMENT_3D ( 'NONE', #16, #115, #38 ) ;
#146 = FACE_BOUND ( 'NONE', #18, .T. ) ;
#147 = DIRECTION ( 'NONE',  ( 0.0000000000000000000, 1.000000000000000000, 0.0000000000000000000 ) ) ;
#148 = EDGE_LOOP ( 'NONE', ( #229 ) ) ;
#149 = DIRECTION ( 'NONE',  ( -3.491481338843133355E-15, 1.224646799147352961E-16, -1.000000000000000000 ) ) ;
#150 = ORIENTED_EDGE ( 'NONE', *, *, #11, .F. ) ;
#151 = DIRECTION ( 'NONE',  ( -3.491481338843133355E-15, 1.224646799147352961E-16, -1.000000000000000000 ) ) ;
#152 = CARTESIAN_POINT ( 'NONE',  ( 3.491481338843132862E-16, -1.224646799147352653E-17, 0.09999999999999997780 ) ) ;
#153 = VERTEX_POINT ( 'NONE', #29 ) ;
#154 = CIRCLE ( 'NONE', #282, 1.500000000000003331 ) ;
#155 = EDGE_LOOP ( 'NONE', ( #239 ) ) ;
#156 = CARTESIAN_POINT ( 'NONE',  ( 1.316288464743861212E-13, 1.499999999999998668, 37.69999999999999574 ) ) ;
#157 = ORIENTED_EDGE ( 'NONE', *, *, #130, .F. ) ;
#158 = ORIENTED_EDGE ( 'NONE', *, *, #34, .T. ) ;
#159 = COORDINATED_UNIVERSAL_TIME_OFFSET ( 1, 0, .AHEAD. ) ;
#160 = COORDINATED_UNIVERSAL_TIME_OFFSET ( 1, 0, .AHEAD. ) ;
#161 = EDGE_CURVE ( 'NONE', #5, #5, #230, .T. ) ;
#162 = CARTESIAN_POINT ( 'NONE',  ( 2.444036937190193349E-14, -8.673617379884035472E-16, 7.000000000000000000 ) ) ;
#163 = CARTESIAN_POINT ( 'NONE',  ( 1.396592535537253342E-14, 2.538343432155184272E-33, 4.000000000000000000 ) ) ;
#164 = CIRCLE ( 'NONE', #165, 0.3384999999999991904 ) ;
#165 = AXIS2_PLACEMENT_3D ( 'NONE', #152, #257, #13 ) ;
#166 = APPROVAL_PERSON_ORGANIZATION ( #207, #122, #187 ) ;
#167 = DIRECTION ( 'NONE',  ( -3.491481338843133355E-15, 1.224646799147352961E-16, -1.000000000000000000 ) ) ;
#168 = ORIENTED_EDGE ( 'NONE', *, *, #161, .F. ) ;
#169 = AXIS2_PLACEMENT_3D ( 'NONE', #189, #95, #206 ) ;
#170 = CARTESIAN_POINT ( 'NONE',  ( 4.805036378898378956E-14, 1.499999999999995559, 13.76217116053805967 ) ) ;
#171 = ORIENTED_EDGE ( 'NONE', *, *, #130, .T. ) ;
#172 = FACE_OUTER_BOUND ( 'NONE', #220, .T. ) ;
#173 = ORIENTED_EDGE ( 'NONE', *, *, #161, .T. ) ;
#174 = EDGE_CURVE ( 'NONE', #112, #112, #154, .T. ) ;
#175 = VERTEX_POINT ( 'NONE', #110 ) ;
#176 = FACE_OUTER_BOUND ( 'NONE', #111, .T. ) ;
#177 = UNCERTAINTY_MEASURE_WITH_UNIT (LENGTH_MEASURE( 1.000000000000000082E-05 ), #128, 'distance_accuracy_value', 'NONE');
#178 = CYLINDRICAL_SURFACE ( 'NONE', #43, 1.500000000000000222 ) ;
#179 = CIRCLE ( 'NONE', #127, 1.499999999999997113 ) ;
#180 = DIRECTION ( 'NONE',  ( -3.491481338843133355E-15, 1.224646799147352961E-16, -1.000000000000000000 ) ) ;
#181 = CYLINDRICAL_SURFACE ( 'NONE', #188, 0.3384999999999995235 ) ;
#182 = COORDINATED_UNIVERSAL_TIME_OFFSET ( 1, 0, .AHEAD. ) ;
#183 = CARTESIAN_POINT ( 'NONE',  ( 0.0000000000000000000, 0.0000000000000000000, 0.0000000000000000000 ) ) ;
#184 = APPROVAL_STATUS ( 'not_yet_approved' ) ;
#185 = DIRECTION ( 'NONE',  ( -3.491481338843133355E-15, 1.224646799147352961E-16, -1.000000000000000000 ) ) ;
#186 = ORGANIZATION ( 'UNSPECIFIED', 'UNSPECIFIED', '' ) ;
#187 = APPROVAL_ROLE ( '' ) ;
#188 = AXIS2_PLACEMENT_3D ( 'NONE', #183, #113, #35 ) ;
#189 = CARTESIAN_POINT ( 'NONE',  ( 1.326762908760390423E-13, -4.653657836759941152E-15, 38.00000000000000000 ) ) ;
#190 = EDGE_LOOP ( 'NONE', ( #273 ) ) ;
#191 = CLOSED_SHELL ( 'NONE', ( #125, #243, #68, #54, #196, #109, #228 ) ) ;
#192 = CARTESIAN_POINT ( 'NONE',  ( 1.326762908760390423E-13, -4.653657836759941152E-15, 38.00000000000000000 ) ) ;
#193 = CC_DESIGN_PERSON_AND_ORGANIZATION_ASSIGNMENT ( #39, #118, ( #7 ) ) ;
#194 = ORIENTED_EDGE ( 'NONE', *, *, #174, .T. ) ;
#195 = DIRECTION ( 'NONE',  ( 4.275831445896957731E-31, 1.000000000000000000, 1.224646799147352961E-16 ) ) ;
#196 = ADVANCED_FACE ( 'NONE', ( #268, #103 ), #178, .T. ) ;
#197 = DIRECTION ( 'NONE',  ( 0.0000000000000000000, 1.000000000000000000, 0.0000000000000000000 ) ) ;
#198 = CYLINDRICAL_SURFACE ( 'NONE', #264, 0.3385000000000000231 ) ;
#199 = PERSON_AND_ORGANIZATION ( #231, #186 ) ;
#200 = ADVANCED_FACE ( 'NONE', ( #55 ), #256, .T. ) ;
#201 = CARTESIAN_POINT ( 'NONE',  ( 4.805036378898378956E-14, -1.685379886107094895E-15, 13.76217116053805967 ) ) ;
#202 = COORDINATED_UNIVERSAL_TIME_OFFSET ( 1, 0, .AHEAD. ) ;
#203 = EDGE_LOOP ( 'NONE', ( #137 ) ) ;
#204 = APPROVAL ( #184, 'UNSPECIFIED' ) ;
#205 = DATE_TIME_ROLE ( 'classification_date' ) ;
#206 = DIRECTION ( 'NONE',  ( 0.0000000000000000000, 1.000000000000000000, 0.0000000000000000000 ) ) ;
#207 = PERSON_AND_ORGANIZATION ( #231, #186 ) ;
#208 = AXIS2_PLACEMENT_3D ( 'NONE', #279, #167, #147 ) ;
#209 = DIRECTION ( 'NONE',  ( 3.491481338843133355E-15, -1.224646799147352961E-16, 1.000000000000000000 ) ) ;
#210 = CC_DESIGN_APPROVAL ( #204, ( #7 ) ) ;
#211 = CARTESIAN_POINT ( 'NONE',  ( 1.316288464743861212E-13, -4.616918432785520292E-15, 37.69999999999999574 ) ) ;
#212 = APPLICATION_CONTEXT ( 'configuration controlled 3d designs of mechanical parts and assemblies' ) ;
#213 = AXIS2_PLACEMENT_3D ( 'NONE', #215, #274, #195 ) ;
#214 = CARTESIAN_POINT ( 'NONE',  ( 1.396592535537253342E-14, 0.3384999999999993014, 4.000000000000000000 ) ) ;
#215 = CARTESIAN_POINT ( 'NONE',  ( 1.326762908760390423E-13, 8.998558695971099120E-33, 38.00000000000000000 ) ) ;
#216 = DIRECTION ( 'NONE',  ( 4.275831445896957731E-31, 1.000000000000000000, 1.224646799147353207E-16 ) ) ;
#217 = PRODUCT_DEFINITION_FORMATION_WITH_SPECIFIED_SOURCE ( 'ANY', '', #57, .NOT_KNOWN. ) ;
#218 = ORIENTED_EDGE ( 'NONE', *, *, #74, .T. ) ;
#219 = PERSON_AND_ORGANIZATION ( #231, #186 ) ;
#220 = EDGE_LOOP ( 'NONE', ( #173 ) ) ;
#221 = PERSON_AND_ORGANIZATION_ROLE ( 'design_supplier' ) ;
#222 = APPROVAL_ROLE ( '' ) ;
#223 = APPROVAL_STATUS ( 'not_yet_approved' ) ;
#224 = CONICAL_SURFACE ( 'NONE', #169, 1.200000000000003286, 0.7853981633974453924 ) ;
#225 = AXIS2_PLACEMENT_3D ( 'NONE', #163, #209, #265 ) ;
#226 = CALENDAR_DATE ( 2021, 26, 11 ) ;
#227 = PLANE ( 'NONE',  #225 ) ;
#228 = ADVANCED_FACE ( 'NONE', ( #26 ), #84, .F. ) ;
#229 = ORIENTED_EDGE ( 'NONE', *, *, #121, .F. ) ;
#230 = CIRCLE ( 'NONE', #138, 0.3385000000000002451 ) ;
#231 = PERSON ( 'UNSPECIFIED', 'UNSPECIFIED', 'UNSPECIFIED', ('UNSPECIFIED'), ('UNSPECIFIED'), ('UNSPECIFIED') ) ;
#232 = CARTESIAN_POINT ( 'NONE',  ( 4.731839565957902296E-32, 0.2807649730810374833, 1.355252715606880543E-17 ) ) ;
#233 = DIRECTION ( 'NONE',  ( -4.275831445896957731E-31, -1.000000000000000000, -1.224646799147352961E-16 ) ) ;
#234 = DESIGN_CONTEXT ( 'detailed design', #142, 'design' ) ;
#235 = CC_DESIGN_DATE_AND_TIME_ASSIGNMENT ( #136, #205, ( #70 ) ) ;
#236 = DIRECTION ( 'NONE',  ( 4.275831445896957731E-31, 1.000000000000000000, 1.224646799147352961E-16 ) ) ;
#237 = APPROVAL_DATE_TIME ( #263, #122 ) ;
#238 = MECHANICAL_CONTEXT ( 'NONE', #212, 'mechanical' ) ;
#239 = ORIENTED_EDGE ( 'NONE', *, *, #74, .F. ) ;
#240 = PERSON_AND_ORGANIZATION ( #231, #186 ) ;
#241 = TOROIDAL_SURFACE ( 'NONE', #101, 2.338500000000000245, 2.000000000000000000 ) ;
#242 = PERSON_AND_ORGANIZATION_ROLE ( 'classification_officer' ) ;
#243 = ADVANCED_FACE ( 'NONE', ( #133, #172 ), #198, .T. ) ;
#244 = APPROVAL_ROLE ( '' ) ;
#245 = CC_DESIGN_PERSON_AND_ORGANIZATION_ASSIGNMENT ( #219, #221, ( #217 ) ) ;
#246 = FACE_OUTER_BOUND ( 'NONE', #203, .T. ) ;
#247 = EDGE_LOOP ( 'NONE', ( #218 ) ) ;
#248 = DIRECTION ( 'NONE',  ( -3.491481338843133355E-15, 1.224646799147352961E-16, -1.000000000000000000 ) ) ;
#249 = CONICAL_SURFACE ( 'NONE', #82, 1.499999999999997113, 0.1745329251994260089 ) ;
#250 = EDGE_LOOP ( 'NONE', ( #50 ) ) ;
#251 = CARTESIAN_POINT ( 'NONE',  ( 1.396592535537253342E-14, 2.538343432155184272E-33, 4.000000000000000000 ) ) ;
#252 = EDGE_LOOP ( 'NONE', ( #60 ) ) ;
#253 =( NAMED_UNIT ( * ) PLANE_ANGLE_UNIT ( ) SI_UNIT ( $, .RADIAN. ) );
#254 = ORIENTED_EDGE ( 'NONE', *, *, #269, .T. ) ;
#255 = AXIS2_PLACEMENT_3D ( 'NONE', #251, #106, #233 ) ;
#256 = PLANE ( 'NONE',  #255 ) ;
#257 = DIRECTION ( 'NONE',  ( -3.491481338843133355E-15, 1.224646799147352961E-16, -1.000000000000000000 ) ) ;
#258 = APPROVAL_DATE_TIME ( #276, #204 ) ;
#259 = CALENDAR_DATE ( 2021, 26, 11 ) ;
#260 = APPROVAL_PERSON_ORGANIZATION ( #114, #204, #244 ) ;
#261 = DIRECTION ( 'NONE',  ( 3.491481338843133355E-15, -1.224646799147352961E-16, 1.000000000000000000 ) ) ;
#262 = FACE_OUTER_BOUND ( 'NONE', #134, .T. ) ;
#263 = DATE_AND_TIME ( #139, #270 ) ;
#264 = AXIS2_PLACEMENT_3D ( 'NONE', #59, #151, #9 ) ;
#265 = DIRECTION ( 'NONE',  ( -4.275831445896957731E-31, -1.000000000000000000, -1.224646799147352961E-16 ) ) ;
#266 = ORIENTED_EDGE ( 'NONE', *, *, #269, .F. ) ;
#267 = CARTESIAN_POINT ( 'NONE',  ( 2.444036937190193349E-14, -8.572527594031471218E-16, 7.000000000000000000 ) ) ;
#268 = FACE_OUTER_BOUND ( 'NONE', #190, .T. ) ;
#269 = EDGE_CURVE ( 'NONE', #10, #10, #56, .T. ) ;
#270 = LOCAL_TIME ( 15, 47, 21.00000000000000000, #159 ) ;
#271 = CARTESIAN_POINT ( 'NONE',  ( 1.396592535537253342E-14, 0.3384999999999993014, 4.000000000000000000 ) ) ;
#272 = EDGE_LOOP ( 'NONE', ( #194 ) ) ;
#273 = ORIENTED_EDGE ( 'NONE', *, *, #30, .F. ) ;
#274 = DIRECTION ( 'NONE',  ( -3.491481338843133355E-15, 1.224646799147352961E-16, -1.000000000000000000 ) ) ;
#275 = EDGE_LOOP ( 'NONE', ( #157 ) ) ;
#276 = DATE_AND_TIME ( #259, #83 ) ;
#277 = PERSON_AND_ORGANIZATION ( #231, #186 ) ;
#278 = FACE_OUTER_BOUND ( 'NONE', #100, .T. ) ;
#279 = CARTESIAN_POINT ( 'NONE',  ( 1.396592535537253342E-14, -4.898587196589411843E-16, 4.000000000000000000 ) ) ;
#280 = MANIFOLD_SOLID_BREP ( 'Corps-Déplacer/Copier1[2]', #36 ) ;
#281 = CC_DESIGN_PERSON_AND_ORGANIZATION_ASSIGNMENT ( #17, #116, ( #57 ) ) ;
#282 = AXIS2_PLACEMENT_3D ( 'NONE', #211, #149, #31 ) ;
#283 = CIRCLE ( 'NONE', #107, 1.200000000000003286 ) ;
ENDSEC;
END-ISO-10303-21;
