ISO-10303-21;
HEADER;
FILE_DESCRIPTION (( 'STEP AP203' ),
    '1' );
FILE_NAME ('200012.step',
    '2021-11-26T14:47:20',
    ( '' ),
    ( '' ),
    'SwSTEP 2.0',
    'SolidWorks 2019',
    '' );
FILE_SCHEMA (( 'CONFIG_CONTROL_DESIGN' ));
ENDSEC;

DATA;
#1 = CC_DESIGN_DATE_AND_TIME_ASSIGNMENT ( #5, #23, ( #148 ) ) ;
#2 =( NAMED_UNIT ( * ) SI_UNIT ( $, .STERADIAN. ) SOLID_ANGLE_UNIT ( ) );
#3 = DIRECTION ( 'NONE',  ( 4.275831445896957731E-31, 1.000000000000000000, 1.224646799147352961E-16 ) ) ;
#4 = PERSON_AND_ORGANIZATION ( #30, #57 ) ;
#5 = DATE_AND_TIME ( #201, #213 ) ;
#6 = ADVANCED_FACE ( 'NONE', ( #136, #110 ), #139, .T. ) ;
#7 = ADVANCED_FACE ( 'NONE', ( #90, #86 ), #51, .T. ) ;
#8 = AXIS2_PLACEMENT_3D ( 'NONE', #31, #205, #186 ) ;
#9 = CARTESIAN_POINT ( 'NONE',  ( 1.396592535537253342E-14, -4.898587196589411843E-16, 4.000000000000000000 ) ) ;
#10 = CALENDAR_DATE ( 2021, 26, 11 ) ;
#11 = ORIENTED_EDGE ( 'NONE', *, *, #233, .F. ) ;
#12 = AXIS2_PLACEMENT_3D ( 'NONE', #78, #97, #3 ) ;
#13 = EDGE_LOOP ( 'NONE', ( #244 ) ) ;
#14 = CARTESIAN_POINT ( 'NONE',  ( 2.565294811559829736E-14, 0.3638844939755801478, 7.347296355333847728 ) ) ;
#15 = PERSON_AND_ORGANIZATION_ROLE ( 'creator' ) ;
#16 = EDGE_CURVE ( 'NONE', #87, #87, #281, .T. ) ;
#17 = APPLICATION_PROTOCOL_DEFINITION ( 'international standard', 'config_control_design', 1994, #174 ) ;
#18 = DIRECTION ( 'NONE',  ( 0.0000000000000000000, 1.000000000000000000, 0.0000000000000000000 ) ) ;
#19 = CONICAL_SURFACE ( 'NONE', #137, 1.499999999999997113, 0.1745329251994261754 ) ;
#20 = APPROVAL_ROLE ( '' ) ;
#21 = DIRECTION ( 'NONE',  ( 1.000000000000000000, 0.0000000000000000000, 0.0000000000000000000 ) ) ;
#22 = DIRECTION ( 'NONE',  ( -4.331176786478052123E-31, -1.000000000000000000, -1.219117885103643616E-16 ) ) ;
#23 = DATE_TIME_ROLE ( 'classification_date' ) ;
#24 = DIRECTION ( 'NONE',  ( -3.491481338843133355E-15, 1.224646799147352961E-16, -1.000000000000000000 ) ) ;
#25 = CIRCLE ( 'NONE', #182, 0.3638844939755810359 ) ;
#26 = LOCAL_TIME ( 15, 47, 20.00000000000000000, #79 ) ;
#27 = ADVANCED_FACE ( 'NONE', ( #271, #163 ), #167, .T. ) ;
#28 = PRODUCT_RELATED_PRODUCT_CATEGORY ( 'detail', '', ( #103 ) ) ;
#29 = AXIS2_PLACEMENT_3D ( 'NONE', #122, #258, #18 ) ;
#30 = PERSON ( 'UNSPECIFIED', 'UNSPECIFIED', 'UNSPECIFIED', ('UNSPECIFIED'), ('UNSPECIFIED'), ('UNSPECIFIED') ) ;
#31 = CARTESIAN_POINT ( 'NONE',  ( 0.0000000000000000000, 0.0000000000000000000, 0.0000000000000000000 ) ) ;
#32 = EDGE_LOOP ( 'NONE', ( #138 ) ) ;
#33 = CARTESIAN_POINT ( 'NONE',  ( 1.396592535537253342E-14, 0.3334999999999991860, 4.000000000000000000 ) ) ;
#34 = FACE_OUTER_BOUND ( 'NONE', #239, .T. ) ;
#35 = DIRECTION ( 'NONE',  ( -4.275831445896957731E-31, -1.000000000000000000, -1.224646799147352961E-16 ) ) ;
#36 = PERSON_AND_ORGANIZATION_ROLE ( 'design_owner' ) ;
#37 = CARTESIAN_POINT ( 'NONE',  ( 4.814936966218636758E-14, 1.499999999999995559, 13.79052756963614890 ) ) ;
#38 = AXIS2_PLACEMENT_3D ( 'NONE', #164, #226, #45 ) ;
#39 =( LENGTH_UNIT ( ) NAMED_UNIT ( * ) SI_UNIT ( .MILLI., .METRE. ) );
#40 = CC_DESIGN_APPROVAL ( #183, ( #148 ) ) ;
#41 = ADVANCED_FACE ( 'NONE', ( #34 ), #131, .F. ) ;
#42 = COORDINATED_UNIVERSAL_TIME_OFFSET ( 1, 0, .AHEAD. ) ;
#43 = PLANE ( 'NONE',  #147 ) ;
#44 = ORIENTED_EDGE ( 'NONE', *, *, #85, .T. ) ;
#45 = DIRECTION ( 'NONE',  ( 0.0000000000000000000, 1.000000000000000000, 0.0000000000000000000 ) ) ;
#46 = ADVANCED_FACE ( 'NONE', ( #189, #154 ), #89, .F. ) ;
#47 = EDGE_LOOP ( 'NONE', ( #83 ) ) ;
#48 = ADVANCED_FACE ( 'NONE', ( #192 ), #91, .F. ) ;
#49 = EDGE_LOOP ( 'NONE', ( #177 ) ) ;
#50 = AXIS2_PLACEMENT_3D ( 'NONE', #126, #146, #104 ) ;
#51 = CYLINDRICAL_SURFACE ( 'NONE', #246, 1.500000000000000222 ) ;
#52 = DIRECTION ( 'NONE',  ( -3.491481338843133355E-15, 1.224646799147352961E-16, -1.000000000000000000 ) ) ;
#53 = ADVANCED_FACE ( 'NONE', ( #238, #144 ), #19, .T. ) ;
#54 = CARTESIAN_POINT ( 'NONE',  ( 3.491481338843132369E-16, -1.224646799147352498E-17, 0.09999999999999996392 ) ) ;
#55 = DIRECTION ( 'NONE',  ( 0.0000000000000000000, 1.000000000000000000, 0.0000000000000000000 ) ) ;
#56 = CARTESIAN_POINT ( 'NONE',  ( 1.316288464743861212E-13, 1.499999999999998668, 37.69999999999999574 ) ) ;
#57 = ORGANIZATION ( 'UNSPECIFIED', 'UNSPECIFIED', '' ) ;
#58 = DIRECTION ( 'NONE',  ( 3.491481338843133355E-15, -1.224646799147352961E-16, 1.000000000000000000 ) ) ;
#59 = ORIENTED_EDGE ( 'NONE', *, *, #247, .T. ) ;
#60 = SECURITY_CLASSIFICATION_LEVEL ( 'unclassified' ) ;
#61 = EDGE_CURVE ( 'NONE', #211, #211, #25, .T. ) ;
#62 = EDGE_LOOP ( 'NONE', ( #206 ) ) ;
#63 = DIRECTION ( 'NONE',  ( 3.491481338843133355E-15, -1.224646799147352961E-16, 1.000000000000000000 ) ) ;
#64 = PRODUCT_DEFINITION ( 'UNKNOWN', '', #121, #161 ) ;
#65 = CIRCLE ( 'NONE', #227, 1.499999999999997113 ) ;
#66 = ORIENTED_EDGE ( 'NONE', *, *, #233, .T. ) ;
#67 = DIRECTION ( 'NONE',  ( -3.491481338843133355E-15, 1.224646799147352961E-16, -1.000000000000000000 ) ) ;
#68 = CC_DESIGN_PERSON_AND_ORGANIZATION_ASSIGNMENT ( #4, #36, ( #103 ) ) ;
#69 = EDGE_LOOP ( 'NONE', ( #11 ) ) ;
#70 = DATE_AND_TIME ( #10, #108 ) ;
#71 = CARTESIAN_POINT ( 'NONE',  ( -8.261542500863091868E-32, 2.897759030570710254E-33, -2.366199815806682709E-17 ) ) ;
#72 = DIRECTION ( 'NONE',  ( 0.0000000000000000000, -1.000000000000000000, 0.0000000000000000000 ) ) ;
#73 = CARTESIAN_POINT ( 'NONE',  ( 2.444036937190193349E-14, 0.3334999999999991860, 7.000000000000000000 ) ) ;
#74 = DIRECTION ( 'NONE',  ( -3.491481338843133355E-15, 1.224646799147352961E-16, -1.000000000000000000 ) ) ;
#75 = AXIS2_PLACEMENT_3D ( 'NONE', #250, #58, #276 ) ;
#76 = VERTEX_POINT ( 'NONE', #100 ) ;
#77 = APPROVAL_DATE_TIME ( #124, #269 ) ;
#78 = CARTESIAN_POINT ( 'NONE',  ( 1.326762908760390423E-13, 8.998558695971099120E-33, 38.00000000000000000 ) ) ;
#79 = COORDINATED_UNIVERSAL_TIME_OFFSET ( 1, 0, .AHEAD. ) ;
#80 = CARTESIAN_POINT ( 'NONE',  ( 2.444036937190193349E-14, -8.673617379884035472E-16, 7.000000000000000000 ) ) ;
#81 = APPROVAL_ROLE ( '' ) ;
#82 = DIRECTION ( 'NONE',  ( 3.491481338843133355E-15, -1.224646799147352961E-16, 1.000000000000000000 ) ) ;
#83 = ORIENTED_EDGE ( 'NONE', *, *, #221, .F. ) ;
#84 = CIRCLE ( 'NONE', #267, 0.3334999999999991860 ) ;
#85 = EDGE_CURVE ( 'NONE', #92, #92, #162, .T. ) ;
#86 = FACE_OUTER_BOUND ( 'NONE', #222, .T. ) ;
#87 = VERTEX_POINT ( 'NONE', #33 ) ;
#88 = DIRECTION ( 'NONE',  ( 0.0000000000000000000, 1.000000000000000000, 0.0000000000000000000 ) ) ;
#89 = TOROIDAL_SURFACE ( 'NONE', #249, 2.333499999999999908, 2.000000000000000000 ) ;
#90 = FACE_OUTER_BOUND ( 'NONE', #47, .T. ) ;
#91 = PLANE ( 'NONE',  #75 ) ;
#92 = VERTEX_POINT ( 'NONE', #170 ) ;
#93 = CARTESIAN_POINT ( 'NONE',  ( 2.565294811559829736E-14, -8.997842963946609330E-16, 7.347296355333847728 ) ) ;
#94 = CC_DESIGN_APPROVAL ( #269, ( #64 ) ) ;
#95 = DATE_AND_TIME ( #175, #26 ) ;
#96 = DIRECTION ( 'NONE',  ( -3.491481338843133355E-15, 1.224646799147352961E-16, -1.000000000000000000 ) ) ;
#97 = DIRECTION ( 'NONE',  ( -3.491481338843133355E-15, 1.224646799147352961E-16, -1.000000000000000000 ) ) ;
#98 = MECHANICAL_CONTEXT ( 'NONE', #174, 'mechanical' ) ;
#99 = ADVANCED_FACE ( 'NONE', ( #119, #220 ), #114, .T. ) ;
#100 = CARTESIAN_POINT ( 'NONE',  ( 3.491481338843133848E-16, 0.3334999999999991860, 0.1000000000000000056 ) ) ;
#101 = FACE_OUTER_BOUND ( 'NONE', #268, .T. ) ;
#102 = COORDINATED_UNIVERSAL_TIME_OFFSET ( 1, 0, .AHEAD. ) ;
#103 = PRODUCT ( '200012', '200012', '', ( #98 ) ) ;
#104 = DIRECTION ( 'NONE',  ( 0.0000000000000000000, 1.000000000000000000, 0.0000000000000000000 ) ) ;
#105 = VERTEX_POINT ( 'NONE', #193 ) ;
#106 = ORIENTED_EDGE ( 'NONE', *, *, #16, .T. ) ;
#107 = APPROVAL_STATUS ( 'not_yet_approved' ) ;
#108 = LOCAL_TIME ( 15, 47, 20.00000000000000000, #209 ) ;
#109 = CIRCLE ( 'NONE', #133, 1.500000000000003331 ) ;
#110 = FACE_OUTER_BOUND ( 'NONE', #270, .T. ) ;
#111 = EDGE_CURVE ( 'NONE', #275, #275, #109, .T. ) ;
#112 = ORIENTED_EDGE ( 'NONE', *, *, #61, .T. ) ;
#113 = DIRECTION ( 'NONE',  ( -3.491481338843133355E-15, 1.224646799147352961E-16, -1.000000000000000000 ) ) ;
#114 = CONICAL_SURFACE ( 'NONE', #125, 0.3334999999999991860, 0.5235987755982921543 ) ;
#115 = LOCAL_TIME ( 15, 47, 20.00000000000000000, #102 ) ;
#116 = EDGE_LOOP ( 'NONE', ( #44 ) ) ;
#117 = CARTESIAN_POINT ( 'NONE',  ( 4.814936966218636758E-14, -1.688852544670823486E-15, 13.79052756963614890 ) ) ;
#118 = PERSON_AND_ORGANIZATION ( #30, #57 ) ;
#119 = FACE_BOUND ( 'NONE', #69, .T. ) ;
#120 = CLOSED_SHELL ( 'NONE', ( #48, #279, #46, #53, #7, #27, #180 ) ) ;
#121 = PRODUCT_DEFINITION_FORMATION_WITH_SPECIFIED_SOURCE ( 'ANY', '', #103, .NOT_KNOWN. ) ;
#122 = CARTESIAN_POINT ( 'NONE',  ( 1.326762908760390423E-13, -4.653657836759941152E-15, 38.00000000000000000 ) ) ;
#123 = ADVANCED_FACE ( 'NONE', ( #261 ), #43, .T. ) ;
#124 = DATE_AND_TIME ( #153, #115 ) ;
#125 = AXIS2_PLACEMENT_3D ( 'NONE', #54, #82, #22 ) ;
#126 = CARTESIAN_POINT ( 'NONE',  ( 2.444036937190193349E-14, -8.572527594031471218E-16, 7.000000000000000000 ) ) ;
#127 = APPROVAL_STATUS ( 'not_yet_approved' ) ;
#128 = ORIENTED_EDGE ( 'NONE', *, *, #85, .F. ) ;
#129 = PERSON_AND_ORGANIZATION ( #30, #57 ) ;
#130 = CARTESIAN_POINT ( 'NONE',  ( 1.396592535537253342E-14, 2.500849437588636873E-33, 4.000000000000000000 ) ) ;
#131 = PLANE ( 'NONE',  #241 ) ;
#132 = EDGE_LOOP ( 'NONE', ( #112 ) ) ;
#133 = AXIS2_PLACEMENT_3D ( 'NONE', #179, #176, #265 ) ;
#134 = EDGE_LOOP ( 'NONE', ( #158 ) ) ;
#135 = CC_DESIGN_PERSON_AND_ORGANIZATION_ASSIGNMENT ( #129, #178, ( #121 ) ) ;
#136 = FACE_OUTER_BOUND ( 'NONE', #13, .T. ) ;
#137 = AXIS2_PLACEMENT_3D ( 'NONE', #117, #273, #72 ) ;
#138 = ORIENTED_EDGE ( 'NONE', *, *, #16, .F. ) ;
#139 = CYLINDRICAL_SURFACE ( 'NONE', #8, 0.3334999999999993525 ) ;
#140 = DIRECTION ( 'NONE',  ( 4.275831445896957731E-31, 1.000000000000000000, 1.224646799147353207E-16 ) ) ;
#141 = CARTESIAN_POINT ( 'NONE',  ( 0.0000000000000000000, 0.0000000000000000000, 0.0000000000000000000 ) ) ;
#142 = CC_DESIGN_SECURITY_CLASSIFICATION ( #148, ( #121 ) ) ;
#143 = EDGE_CURVE ( 'NONE', #198, #198, #152, .T. ) ;
#144 = FACE_OUTER_BOUND ( 'NONE', #62, .T. ) ;
#145 = CARTESIAN_POINT ( 'NONE',  ( 1.396592535537253342E-14, -4.898587196589411843E-16, 4.000000000000000000 ) ) ;
#146 = DIRECTION ( 'NONE',  ( -3.491481338843133355E-15, 1.224646799147352961E-16, -1.000000000000000000 ) ) ;
#147 = AXIS2_PLACEMENT_3D ( 'NONE', #130, #63, #197 ) ;
#148 = SECURITY_CLASSIFICATION ( '', '', #60 ) ;
#149 = APPROVAL_STATUS ( 'not_yet_approved' ) ;
#150 = VERTEX_POINT ( 'NONE', #37 ) ;
#151 = COORDINATED_UNIVERSAL_TIME_OFFSET ( 1, 0, .AHEAD. ) ;
#152 = CIRCLE ( 'NONE', #50, 0.3335000000000000187 ) ;
#153 = CALENDAR_DATE ( 2021, 26, 11 ) ;
#154 = FACE_OUTER_BOUND ( 'NONE', #132, .T. ) ;
#155 = EDGE_LOOP ( 'NONE', ( #159 ) ) ;
#156 = PERSON_AND_ORGANIZATION ( #30, #57 ) ;
#157 = CIRCLE ( 'NONE', #29, 1.200000000000003286 ) ;
#158 = ORIENTED_EDGE ( 'NONE', *, *, #143, .F. ) ;
#159 = ORIENTED_EDGE ( 'NONE', *, *, #202, .F. ) ;
#160 = ORIENTED_EDGE ( 'NONE', *, *, #202, .T. ) ;
#161 = DESIGN_CONTEXT ( 'detailed design', #188, 'design' ) ;
#162 = CIRCLE ( 'NONE', #204, 0.3334999999999996301 ) ;
#163 = FACE_BOUND ( 'NONE', #181, .T. ) ;
#164 = CARTESIAN_POINT ( 'NONE',  ( 1.326762908760390423E-13, -4.653657836759941152E-15, 38.00000000000000000 ) ) ;
#165 = EDGE_LOOP ( 'NONE', ( #245 ) ) ;
#166 = DIRECTION ( 'NONE',  ( 4.275831445896957731E-31, 1.000000000000000000, 1.224646799147352961E-16 ) ) ;
#167 = CONICAL_SURFACE ( 'NONE', #38, 1.200000000000003286, 0.7853981633974453924 ) ;
#168 = DIRECTION ( 'NONE',  ( 0.0000000000000000000, 1.000000000000000000, 0.0000000000000000000 ) ) ;
#169 = APPROVAL ( #127, 'UNSPECIFIED' ) ;
#170 = CARTESIAN_POINT ( 'NONE',  ( 1.396592535537253342E-14, 0.3334999999999991860, 4.000000000000000000 ) ) ;
#171 = DIRECTION ( 'NONE',  ( 0.0000000000000000000, 1.000000000000000000, 0.0000000000000000000 ) ) ;
#172 = CALENDAR_DATE ( 2021, 26, 11 ) ;
#173 = PERSON_AND_ORGANIZATION ( #30, #57 ) ;
#174 = APPLICATION_CONTEXT ( 'configuration controlled 3d designs of mechanical parts and assemblies' ) ;
#175 = CALENDAR_DATE ( 2021, 26, 11 ) ;
#176 = DIRECTION ( 'NONE',  ( -3.491481338843133355E-15, 1.224646799147352961E-16, -1.000000000000000000 ) ) ;
#177 = ORIENTED_EDGE ( 'NONE', *, *, #111, .F. ) ;
#178 = PERSON_AND_ORGANIZATION_ROLE ( 'design_supplier' ) ;
#179 = CARTESIAN_POINT ( 'NONE',  ( 1.316288464743861212E-13, -4.616918432785520292E-15, 37.69999999999999574 ) ) ;
#180 = ADVANCED_FACE ( 'NONE', ( #277 ), #215, .F. ) ;
#181 = EDGE_LOOP ( 'NONE', ( #160 ) ) ;
#182 = AXIS2_PLACEMENT_3D ( 'NONE', #93, #24, #55 ) ;
#183 = APPROVAL ( #107, 'UNSPECIFIED' ) ;
#184 =( GEOMETRIC_REPRESENTATION_CONTEXT ( 3 ) GLOBAL_UNCERTAINTY_ASSIGNED_CONTEXT ( ( #223 ) ) GLOBAL_UNIT_ASSIGNED_CONTEXT ( ( #39, #282, #2 ) ) REPRESENTATION_CONTEXT ( 'NONE', 'WORKASPACE' ) );
#185 = ORIENTED_EDGE ( 'NONE', *, *, #111, .T. ) ;
#186 = DIRECTION ( 'NONE',  ( 4.275831445896958607E-31, 1.000000000000000000, 1.224646799147352961E-16 ) ) ;
#187 = SHAPE_DEFINITION_REPRESENTATION ( #218, #263 ) ;
#188 = APPLICATION_CONTEXT ( 'configuration controlled 3d designs of mechanical parts and assemblies' ) ;
#189 = FACE_OUTER_BOUND ( 'NONE', #134, .T. ) ;
#190 = APPROVAL_DATE_TIME ( #70, #183 ) ;
#191 = DIRECTION ( 'NONE',  ( 4.398389629366483943E-31, 1.000000000000000000, 1.224646799147352961E-16 ) ) ;
#192 = FACE_OUTER_BOUND ( 'NONE', #116, .T. ) ;
#193 = CARTESIAN_POINT ( 'NONE',  ( -4.731839565957903391E-32, 0.2757649730810374789, -1.355252715606880543E-17 ) ) ;
#194 = CC_DESIGN_PERSON_AND_ORGANIZATION_ASSIGNMENT ( #264, #219, ( #148 ) ) ;
#195 = CARTESIAN_POINT ( 'NONE',  ( 4.814936966218636758E-14, -1.688852544670823486E-15, 13.79052756963614890 ) ) ;
#196 = CLOSED_SHELL ( 'NONE', ( #41, #99, #6, #123 ) ) ;
#197 = DIRECTION ( 'NONE',  ( -4.275831445896957731E-31, -1.000000000000000000, -1.224646799147352961E-16 ) ) ;
#198 = VERTEX_POINT ( 'NONE', #73 ) ;
#199 = APPROVAL_ROLE ( '' ) ;
#200 = DIRECTION ( 'NONE',  ( 3.491481338843133355E-15, -1.224646799147352961E-16, 1.000000000000000000 ) ) ;
#201 = CALENDAR_DATE ( 2021, 26, 11 ) ;
#202 = EDGE_CURVE ( 'NONE', #229, #229, #157, .T. ) ;
#203 = CC_DESIGN_PERSON_AND_ORGANIZATION_ASSIGNMENT ( #212, #15, ( #121 ) ) ;
#204 = AXIS2_PLACEMENT_3D ( 'NONE', #145, #252, #168 ) ;
#205 = DIRECTION ( 'NONE',  ( -3.491481338843133355E-15, 1.224646799147352961E-16, -1.000000000000000000 ) ) ;
#206 = ORIENTED_EDGE ( 'NONE', *, *, #221, .T. ) ;
#207 = AXIS2_PLACEMENT_3D ( 'NONE', #141, #208, #166 ) ;
#208 = DIRECTION ( 'NONE',  ( -3.491481338843133355E-15, 1.224646799147352961E-16, -1.000000000000000000 ) ) ;
#209 = COORDINATED_UNIVERSAL_TIME_OFFSET ( 1, 0, .AHEAD. ) ;
#210 = DIRECTION ( 'NONE',  ( 4.275831445896957731E-31, 1.000000000000000000, 1.224646799147352961E-16 ) ) ;
#211 = VERTEX_POINT ( 'NONE', #14 ) ;
#212 = PERSON_AND_ORGANIZATION ( #30, #57 ) ;
#213 = LOCAL_TIME ( 15, 47, 20.00000000000000000, #42 ) ;
#214 = CARTESIAN_POINT ( 'NONE',  ( 0.0000000000000000000, 0.0000000000000000000, 0.0000000000000000000 ) ) ;
#215 = PLANE ( 'NONE',  #12 ) ;
#216 = PERSON_AND_ORGANIZATION_ROLE ( 'creator' ) ;
#217 = CIRCLE ( 'NONE', #230, 0.2757649730810374789 ) ;
#218 = PRODUCT_DEFINITION_SHAPE ( 'NONE', 'NONE',  #64 ) ;
#219 = PERSON_AND_ORGANIZATION_ROLE ( 'classification_officer' ) ;
#220 = FACE_OUTER_BOUND ( 'NONE', #266, .T. ) ;
#221 = EDGE_CURVE ( 'NONE', #150, #150, #65, .T. ) ;
#222 = EDGE_LOOP ( 'NONE', ( #185 ) ) ;
#223 = UNCERTAINTY_MEASURE_WITH_UNIT (LENGTH_MEASURE( 1.000000000000000082E-05 ), #39, 'distance_accuracy_value', 'NONE');
#224 = APPROVAL_PERSON_ORGANIZATION ( #118, #269, #20 ) ;
#225 = CARTESIAN_POINT ( 'NONE',  ( 0.0000000000000000000, 0.0000000000000000000, 0.0000000000000000000 ) ) ;
#226 = DIRECTION ( 'NONE',  ( -3.491481338843133355E-15, 1.224646799147352961E-16, -1.000000000000000000 ) ) ;
#227 = AXIS2_PLACEMENT_3D ( 'NONE', #195, #280, #171 ) ;
#228 = APPROVAL_PERSON_ORGANIZATION ( #156, #183, #81 ) ;
#229 = VERTEX_POINT ( 'NONE', #234 ) ;
#230 = AXIS2_PLACEMENT_3D ( 'NONE', #254, #113, #210 ) ;
#231 = DIRECTION ( 'NONE',  ( 0.0000000000000000000, 0.0000000000000000000, 1.000000000000000000 ) ) ;
#232 = CARTESIAN_POINT ( 'NONE',  ( 3.491481338843132369E-16, -1.224646799147352498E-17, 0.09999999999999996392 ) ) ;
#233 = EDGE_CURVE ( 'NONE', #105, #105, #217, .T. ) ;
#234 = CARTESIAN_POINT ( 'NONE',  ( 1.326762908760390423E-13, 1.199999999999998845, 38.00000000000000000 ) ) ;
#235 = PERSON_AND_ORGANIZATION ( #30, #57 ) ;
#236 = AXIS2_PLACEMENT_3D ( 'NONE', #9, #67, #88 ) ;
#237 = DATE_AND_TIME ( #172, #262 ) ;
#238 = FACE_BOUND ( 'NONE', #165, .T. ) ;
#239 = EDGE_LOOP ( 'NONE', ( #66 ) ) ;
#240 = CC_DESIGN_PERSON_AND_ORGANIZATION_ASSIGNMENT ( #173, #216, ( #64 ) ) ;
#241 = AXIS2_PLACEMENT_3D ( 'NONE', #71, #200, #35 ) ;
#242 = AXIS2_PLACEMENT_3D ( 'NONE', #214, #231, #21 ) ;
#243 = CC_DESIGN_APPROVAL ( #169, ( #121 ) ) ;
#244 = ORIENTED_EDGE ( 'NONE', *, *, #247, .F. ) ;
#245 = ORIENTED_EDGE ( 'NONE', *, *, #61, .F. ) ;
#246 = AXIS2_PLACEMENT_3D ( 'NONE', #225, #52, #140 ) ;
#247 = EDGE_CURVE ( 'NONE', #76, #76, #84, .T. ) ;
#248 = EDGE_LOOP ( 'NONE', ( #272 ) ) ;
#249 = AXIS2_PLACEMENT_3D ( 'NONE', #80, #96, #191 ) ;
#250 = CARTESIAN_POINT ( 'NONE',  ( 1.396592535537253342E-14, 2.500849437588636873E-33, 4.000000000000000000 ) ) ;
#251 = CYLINDRICAL_SURFACE ( 'NONE', #207, 0.3334999999999997966 ) ;
#252 = DIRECTION ( 'NONE',  ( -3.491481338843133355E-15, 1.224646799147352961E-16, -1.000000000000000000 ) ) ;
#253 = FACE_OUTER_BOUND ( 'NONE', #248, .T. ) ;
#254 = CARTESIAN_POINT ( 'NONE',  ( -1.652308500172618374E-31, 5.795518061141420508E-33, -4.732399631613365417E-17 ) ) ;
#255 = MANIFOLD_SOLID_BREP ( 'Corps-Déplacer/Copier1[1]', #120 ) ;
#256 = DATE_TIME_ROLE ( 'creation_date' ) ;
#257 = DIRECTION ( 'NONE',  ( 4.331176786478052123E-31, 1.000000000000000000, 1.219117885103643616E-16 ) ) ;
#258 = DIRECTION ( 'NONE',  ( -3.491481338843133355E-15, 1.224646799147352961E-16, -1.000000000000000000 ) ) ;
#259 = MANIFOLD_SOLID_BREP ( 'Corps-Déplacer/Copier1[2]', #196 ) ;
#260 = APPROVAL_DATE_TIME ( #95, #169 ) ;
#261 = FACE_OUTER_BOUND ( 'NONE', #32, .T. ) ;
#262 = LOCAL_TIME ( 15, 47, 20.00000000000000000, #151 ) ;
#263 = ADVANCED_BREP_SHAPE_REPRESENTATION ( '200012', ( #255, #259, #242 ), #184 ) ;
#264 = PERSON_AND_ORGANIZATION ( #30, #57 ) ;
#265 = DIRECTION ( 'NONE',  ( 0.0000000000000000000, 1.000000000000000000, 0.0000000000000000000 ) ) ;
#266 = EDGE_LOOP ( 'NONE', ( #59 ) ) ;
#267 = AXIS2_PLACEMENT_3D ( 'NONE', #232, #74, #257 ) ;
#268 = EDGE_LOOP ( 'NONE', ( #128 ) ) ;
#269 = APPROVAL ( #149, 'UNSPECIFIED' ) ;
#270 = EDGE_LOOP ( 'NONE', ( #106 ) ) ;
#271 = FACE_OUTER_BOUND ( 'NONE', #49, .T. ) ;
#272 = ORIENTED_EDGE ( 'NONE', *, *, #143, .T. ) ;
#273 = DIRECTION ( 'NONE',  ( 3.491481338843133355E-15, -1.224646799147352961E-16, 1.000000000000000000 ) ) ;
#274 = CC_DESIGN_DATE_AND_TIME_ASSIGNMENT ( #237, #256, ( #64 ) ) ;
#275 = VERTEX_POINT ( 'NONE', #56 ) ;
#276 = DIRECTION ( 'NONE',  ( -4.275831445896957731E-31, -1.000000000000000000, -1.224646799147352961E-16 ) ) ;
#277 = FACE_OUTER_BOUND ( 'NONE', #155, .T. ) ;
#278 = APPLICATION_PROTOCOL_DEFINITION ( 'international standard', 'config_control_design', 1994, #188 ) ;
#279 = ADVANCED_FACE ( 'NONE', ( #101, #253 ), #251, .T. ) ;
#280 = DIRECTION ( 'NONE',  ( -3.491481338843133355E-15, 1.224646799147352961E-16, -1.000000000000000000 ) ) ;
#281 = CIRCLE ( 'NONE', #236, 0.3334999999999996301 ) ;
#282 =( NAMED_UNIT ( * ) PLANE_ANGLE_UNIT ( ) SI_UNIT ( $, .RADIAN. ) );
#283 = APPROVAL_PERSON_ORGANIZATION ( #235, #169, #199 ) ;
ENDSEC;
END-ISO-10303-21;
