ISO-10303-21;
HEADER;
FILE_DESCRIPTION (( 'STEP AP203' ),
    '1' );
FILE_NAME ('200011.step',
    '2021-11-26T14:47:20',
    ( '' ),
    ( '' ),
    'SwSTEP 2.0',
    'SolidWorks 2019',
    '' );
FILE_SCHEMA (( 'CONFIG_CONTROL_DESIGN' ));
ENDSEC;

DATA;
#1 = DIRECTION ( 'NONE',  ( 0.0000000000000000000, 0.0000000000000000000, 1.000000000000000000 ) ) ;
#2 = EDGE_LOOP ( 'NONE', ( #280 ) ) ;
#3 = FACE_OUTER_BOUND ( 'NONE', #107, .T. ) ;
#4 = CC_DESIGN_PERSON_AND_ORGANIZATION_ASSIGNMENT ( #182, #271, ( #13 ) ) ;
#5 = CALENDAR_DATE ( 2021, 26, 11 ) ;
#6 = AXIS2_PLACEMENT_3D ( 'NONE', #232, #168, #108 ) ;
#7 = AXIS2_PLACEMENT_3D ( 'NONE', #212, #170, #97 ) ;
#8 = UNCERTAINTY_MEASURE_WITH_UNIT (LENGTH_MEASURE( 1.000000000000000082E-05 ), #217, 'distance_accuracy_value', 'NONE');
#9 = APPROVAL_ROLE ( '' ) ;
#10 = CARTESIAN_POINT ( 'NONE',  ( 2.444036937190193349E-14, -8.673617379884035472E-16, 7.000000000000000000 ) ) ;
#11 = TOROIDAL_SURFACE ( 'NONE', #211, 2.343500000000000139, 2.000000000000000444 ) ;
#12 = CARTESIAN_POINT ( 'NONE',  ( 3.491481338843132862E-16, -1.224646799147352653E-17, 0.09999999999999997780 ) ) ;
#13 = SECURITY_CLASSIFICATION ( '', '', #94 ) ;
#14 = APPROVAL_DATE_TIME ( #128, #39 ) ;
#15 = DIRECTION ( 'NONE',  ( -3.491481338843133355E-15, 1.224646799147352961E-16, -1.000000000000000000 ) ) ;
#16 = CARTESIAN_POINT ( 'NONE',  ( -2.755149448442171678E-32, 9.663763387964344096E-34, -7.891061647074597639E-18 ) ) ;
#17 = DIRECTION ( 'NONE',  ( 4.275831445896957731E-31, 1.000000000000000000, 1.224646799147353207E-16 ) ) ;
#18 = ORIENTED_EDGE ( 'NONE', *, *, #162, .T. ) ;
#19 = EDGE_CURVE ( 'NONE', #179, #179, #99, .T. ) ;
#20 = EDGE_LOOP ( 'NONE', ( #153 ) ) ;
#21 = FACE_OUTER_BOUND ( 'NONE', #238, .T. ) ;
#22 = FACE_OUTER_BOUND ( 'NONE', #20, .T. ) ;
#23 = EDGE_LOOP ( 'NONE', ( #129 ) ) ;
#24 = PLANE ( 'NONE',  #96 ) ;
#25 = PRODUCT_DEFINITION_SHAPE ( 'NONE', 'NONE',  #185 ) ;
#26 = DATE_AND_TIME ( #51, #226 ) ;
#27 = ADVANCED_FACE ( 'NONE', ( #164, #189 ), #77, .T. ) ;
#28 = PERSON_AND_ORGANIZATION_ROLE ( 'design_supplier' ) ;
#29 = DATE_TIME_ROLE ( 'creation_date' ) ;
#30 = AXIS2_PLACEMENT_3D ( 'NONE', #239, #103, #44 ) ;
#31 = DESIGN_CONTEXT ( 'detailed design', #166, 'design' ) ;
#32 = CIRCLE ( 'NONE', #81, 1.500000000000003331 ) ;
#33 = CARTESIAN_POINT ( 'NONE',  ( 0.0000000000000000000, 0.0000000000000000000, 0.0000000000000000000 ) ) ;
#34 = DIRECTION ( 'NONE',  ( -3.491481338843133355E-15, 1.224646799147352961E-16, -1.000000000000000000 ) ) ;
#35 = DIRECTION ( 'NONE',  ( -3.491481338843133355E-15, 1.224646799147352961E-16, -1.000000000000000000 ) ) ;
#36 = DIRECTION ( 'NONE',  ( 0.0000000000000000000, 1.000000000000000000, 0.0000000000000000000 ) ) ;
#37 = CARTESIAN_POINT ( 'NONE',  ( 2.444036937190193349E-14, -8.572527594031471218E-16, 7.000000000000000000 ) ) ;
#38 = VERTEX_POINT ( 'NONE', #131 ) ;
#39 = APPROVAL ( #275, 'UNSPECIFIED' ) ;
#40 =( NAMED_UNIT ( * ) SI_UNIT ( $, .STERADIAN. ) SOLID_ANGLE_UNIT ( ) );
#41 = ORIENTED_EDGE ( 'NONE', *, *, #123, .F. ) ;
#42 = AXIS2_PLACEMENT_3D ( 'NONE', #115, #1, #204 ) ;
#43 = EDGE_LOOP ( 'NONE', ( #203 ) ) ;
#44 = DIRECTION ( 'NONE',  ( 4.275831445896957731E-31, 1.000000000000000000, 1.224646799147352961E-16 ) ) ;
#45 = DIRECTION ( 'NONE',  ( -3.491481338843133355E-15, 1.224646799147352961E-16, -1.000000000000000000 ) ) ;
#46 = APPROVAL_STATUS ( 'not_yet_approved' ) ;
#47 = AXIS2_PLACEMENT_3D ( 'NONE', #209, #192, #82 ) ;
#48 = CC_DESIGN_DATE_AND_TIME_ASSIGNMENT ( #144, #29, ( #185 ) ) ;
#49 = PERSON_AND_ORGANIZATION_ROLE ( 'creator' ) ;
#50 = APPLICATION_PROTOCOL_DEFINITION ( 'international standard', 'config_control_design', 1994, #166 ) ;
#51 = CALENDAR_DATE ( 2021, 26, 11 ) ;
#52 = FACE_OUTER_BOUND ( 'NONE', #23, .T. ) ;
#53 = CARTESIAN_POINT ( 'NONE',  ( 3.491481338843132862E-16, -1.224646799147352653E-17, 0.09999999999999997780 ) ) ;
#54 = DIRECTION ( 'NONE',  ( -3.491481338843133355E-15, 1.224646799147352961E-16, -1.000000000000000000 ) ) ;
#55 = CARTESIAN_POINT ( 'NONE',  ( 1.316288464743861212E-13, -4.616918432785520292E-15, 37.69999999999999574 ) ) ;
#56 = DIRECTION ( 'NONE',  ( -3.491481338843133355E-15, 1.224646799147352961E-16, -1.000000000000000000 ) ) ;
#57 = CARTESIAN_POINT ( 'NONE',  ( 4.795135791578120523E-14, -1.681907227543366106E-15, 13.73381475143997221 ) ) ;
#58 = DIRECTION ( 'NONE',  ( -4.275831445896957731E-31, -1.000000000000000000, -1.224646799147352961E-16 ) ) ;
#59 = CLOSED_SHELL ( 'NONE', ( #231, #241, #80, #175, #120, #154, #248 ) ) ;
#60 = LOCAL_TIME ( 15, 47, 20.00000000000000000, #269 ) ;
#61 = ORIENTED_EDGE ( 'NONE', *, *, #162, .F. ) ;
#62 = DIRECTION ( 'NONE',  ( 4.205087214819302983E-31, 1.000000000000000000, 1.183626825857540611E-16 ) ) ;
#63 = FACE_OUTER_BOUND ( 'NONE', #111, .T. ) ;
#64 = APPROVAL_PERSON_ORGANIZATION ( #143, #259, #224 ) ;
#65 = EDGE_LOOP ( 'NONE', ( #61 ) ) ;
#66 = DIRECTION ( 'NONE',  ( 0.0000000000000000000, 1.000000000000000000, 0.0000000000000000000 ) ) ;
#67 = EDGE_LOOP ( 'NONE', ( #157 ) ) ;
#68 = PERSON ( 'UNSPECIFIED', 'UNSPECIFIED', 'UNSPECIFIED', ('UNSPECIFIED'), ('UNSPECIFIED'), ('UNSPECIFIED') ) ;
#69 = CARTESIAN_POINT ( 'NONE',  ( 1.326762908760390423E-13, 1.199999999999998845, 38.00000000000000000 ) ) ;
#70 = CLOSED_SHELL ( 'NONE', ( #95, #125, #27, #276 ) ) ;
#71 = DATE_AND_TIME ( #5, #60 ) ;
#72 = AXIS2_PLACEMENT_3D ( 'NONE', #12, #262, #62 ) ;
#73 = AXIS2_PLACEMENT_3D ( 'NONE', #253, #34, #214 ) ;
#74 = COORDINATED_UNIVERSAL_TIME_OFFSET ( 1, 0, .AHEAD. ) ;
#75 = MECHANICAL_CONTEXT ( 'NONE', #152, 'mechanical' ) ;
#76 = CC_DESIGN_PERSON_AND_ORGANIZATION_ASSIGNMENT ( #242, #49, ( #90 ) ) ;
#77 = CYLINDRICAL_SURFACE ( 'NONE', #47, 0.3434999999999994169 ) ;
#78 = SHAPE_DEFINITION_REPRESENTATION ( #25, #187 ) ;
#79 = DIRECTION ( 'NONE',  ( 4.398107464790750614E-31, 1.000000000000000000, 1.224646799147352961E-16 ) ) ;
#80 = ADVANCED_FACE ( 'NONE', ( #228, #171 ), #11, .F. ) ;
#81 = AXIS2_PLACEMENT_3D ( 'NONE', #55, #234, #263 ) ;
#82 = DIRECTION ( 'NONE',  ( 4.275831445896957731E-31, 1.000000000000000000, 1.224646799147352961E-16 ) ) ;
#83 = COORDINATED_UNIVERSAL_TIME_OFFSET ( 1, 0, .AHEAD. ) ;
#84 = DIRECTION ( 'NONE',  ( 4.275831445896957731E-31, 1.000000000000000000, 1.224646799147352961E-16 ) ) ;
#85 = VERTEX_POINT ( 'NONE', #69 ) ;
#86 = CC_DESIGN_DATE_AND_TIME_ASSIGNMENT ( #243, #277, ( #13 ) ) ;
#87 = AXIS2_PLACEMENT_3D ( 'NONE', #167, #250, #227 ) ;
#88 = AXIS2_PLACEMENT_3D ( 'NONE', #278, #54, #251 ) ;
#89 = DIRECTION ( 'NONE',  ( 3.491481338843133355E-15, -1.224646799147352961E-16, 1.000000000000000000 ) ) ;
#90 = PRODUCT_DEFINITION_FORMATION_WITH_SPECIFIED_SOURCE ( 'ANY', '', #219, .NOT_KNOWN. ) ;
#91 = EDGE_LOOP ( 'NONE', ( #173 ) ) ;
#92 = PLANE ( 'NONE',  #146 ) ;
#93 = APPROVAL_STATUS ( 'not_yet_approved' ) ;
#94 = SECURITY_CLASSIFICATION_LEVEL ( 'unclassified' ) ;
#95 = ADVANCED_FACE ( 'NONE', ( #52 ), #145, .F. ) ;
#96 = AXIS2_PLACEMENT_3D ( 'NONE', #106, #138, #58 ) ;
#97 = DIRECTION ( 'NONE',  ( 0.0000000000000000000, -1.000000000000000000, 0.0000000000000000000 ) ) ;
#98 = APPROVAL_ROLE ( '' ) ;
#99 = CIRCLE ( 'NONE', #140, 1.499999999999997113 ) ;
#100 = APPROVAL_PERSON_ORGANIZATION ( #247, #39, #98 ) ;
#101 = CYLINDRICAL_SURFACE ( 'NONE', #135, 1.500000000000000222 ) ;
#102 = FACE_OUTER_BOUND ( 'NONE', #65, .T. ) ;
#103 = DIRECTION ( 'NONE',  ( -3.491481338843133355E-15, 1.224646799147352961E-16, -1.000000000000000000 ) ) ;
#104 = DIRECTION ( 'NONE',  ( -3.491481338843133355E-15, 1.224646799147352961E-16, -1.000000000000000000 ) ) ;
#105 = CC_DESIGN_APPROVAL ( #259, ( #185 ) ) ;
#106 = CARTESIAN_POINT ( 'NONE',  ( 1.396592535537253342E-14, 2.575837426721729959E-33, 4.000000000000000000 ) ) ;
#107 = EDGE_LOOP ( 'NONE', ( #41 ) ) ;
#108 = DIRECTION ( 'NONE',  ( 0.0000000000000000000, 1.000000000000000000, 0.0000000000000000000 ) ) ;
#109 = FACE_OUTER_BOUND ( 'NONE', #43, .T. ) ;
#110 = CARTESIAN_POINT ( 'NONE',  ( 9.463679131915804593E-32, 0.2857649730810374877, 2.710505431213761085E-17 ) ) ;
#111 = EDGE_LOOP ( 'NONE', ( #18 ) ) ;
#112 = EDGE_LOOP ( 'NONE', ( #197 ) ) ;
#113 = FACE_BOUND ( 'NONE', #112, .T. ) ;
#114 = AXIS2_PLACEMENT_3D ( 'NONE', #16, #104, #202 ) ;
#115 = CARTESIAN_POINT ( 'NONE',  ( 0.0000000000000000000, 0.0000000000000000000, 0.0000000000000000000 ) ) ;
#116 = EDGE_LOOP ( 'NONE', ( #267 ) ) ;
#117 = EDGE_LOOP ( 'NONE', ( #137 ) ) ;
#118 = EDGE_CURVE ( 'NONE', #268, #268, #199, .T. ) ;
#119 = AXIS2_PLACEMENT_3D ( 'NONE', #148, #265, #66 ) ;
#120 = ADVANCED_FACE ( 'NONE', ( #22, #63 ), #101, .T. ) ;
#121 = PERSON_AND_ORGANIZATION ( #68, #215 ) ;
#122 = PERSON_AND_ORGANIZATION ( #68, #215 ) ;
#123 = EDGE_CURVE ( 'NONE', #38, #38, #249, .T. ) ;
#124 = CONICAL_SURFACE ( 'NONE', #283, 0.3434999999999991394, 0.5235987755982918213 ) ;
#125 = ADVANCED_FACE ( 'NONE', ( #281, #193 ), #124, .T. ) ;
#126 = CALENDAR_DATE ( 2021, 26, 11 ) ;
#127 = CYLINDRICAL_SURFACE ( 'NONE', #30, 0.3434999999999998610 ) ;
#128 = DATE_AND_TIME ( #126, #257 ) ;
#129 = ORIENTED_EDGE ( 'NONE', *, *, #198, .T. ) ;
#130 = CC_DESIGN_APPROVAL ( #244, ( #90 ) ) ;
#131 = CARTESIAN_POINT ( 'NONE',  ( 1.396592535537253342E-14, 0.3434999999999991949, 4.000000000000000000 ) ) ;
#132 = CARTESIAN_POINT ( 'NONE',  ( 1.396592535537253342E-14, 0.3434999999999991949, 4.000000000000000000 ) ) ;
#133 = ORIENTED_EDGE ( 'NONE', *, *, #158, .T. ) ;
#134 = ORIENTED_EDGE ( 'NONE', *, *, #118, .F. ) ;
#135 = AXIS2_PLACEMENT_3D ( 'NONE', #33, #15, #17 ) ;
#136 = CIRCLE ( 'NONE', #159, 0.3435000000000000275 ) ;
#137 = ORIENTED_EDGE ( 'NONE', *, *, #198, .F. ) ;
#138 = DIRECTION ( 'NONE',  ( 3.491481338843133355E-15, -1.224646799147352961E-16, 1.000000000000000000 ) ) ;
#139 = CARTESIAN_POINT ( 'NONE',  ( 1.326762908760390423E-13, 8.998558695971099120E-33, 38.00000000000000000 ) ) ;
#140 = AXIS2_PLACEMENT_3D ( 'NONE', #57, #35, #213 ) ;
#141 = CC_DESIGN_APPROVAL ( #39, ( #13 ) ) ;
#142 = PERSON_AND_ORGANIZATION ( #68, #215 ) ;
#143 = PERSON_AND_ORGANIZATION ( #68, #215 ) ;
#144 = DATE_AND_TIME ( #181, #266 ) ;
#145 = PLANE ( 'NONE',  #87 ) ;
#146 = AXIS2_PLACEMENT_3D ( 'NONE', #195, #89, #176 ) ;
#147 = FACE_OUTER_BOUND ( 'NONE', #151, .T. ) ;
#148 = CARTESIAN_POINT ( 'NONE',  ( 2.565294811559829420E-14, -8.997842963946609330E-16, 7.347296355333846840 ) ) ;
#149 = FACE_BOUND ( 'NONE', #116, .T. ) ;
#150 = CARTESIAN_POINT ( 'NONE',  ( 3.491481338843134341E-16, 0.3434999999999991394, 0.1000000000000000194 ) ) ;
#151 = EDGE_LOOP ( 'NONE', ( #218 ) ) ;
#152 = APPLICATION_CONTEXT ( 'configuration controlled 3d designs of mechanical parts and assemblies' ) ;
#153 = ORIENTED_EDGE ( 'NONE', *, *, #19, .F. ) ;
#154 = ADVANCED_FACE ( 'NONE', ( #102, #149 ), #191, .T. ) ;
#155 = CARTESIAN_POINT ( 'NONE',  ( 2.565294811559829420E-14, 0.3738844939755799346, 7.347296355333846840 ) ) ;
#156 = FACE_OUTER_BOUND ( 'NONE', #255, .T. ) ;
#157 = ORIENTED_EDGE ( 'NONE', *, *, #210, .T. ) ;
#158 = EDGE_CURVE ( 'NONE', #282, #282, #136, .T. ) ;
#159 = AXIS2_PLACEMENT_3D ( 'NONE', #37, #246, #229 ) ;
#160 = APPROVAL_DATE_TIME ( #71, #244 ) ;
#161 = CALENDAR_DATE ( 2021, 26, 11 ) ;
#162 = EDGE_CURVE ( 'NONE', #172, #172, #32, .T. ) ;
#163 = CIRCLE ( 'NONE', #119, 0.3738844939755808783 ) ;
#164 = FACE_OUTER_BOUND ( 'NONE', #237, .T. ) ;
#165 = DIRECTION ( 'NONE',  ( -4.205087214819302983E-31, -1.000000000000000000, -1.183626825857540611E-16 ) ) ;
#166 = APPLICATION_CONTEXT ( 'configuration controlled 3d designs of mechanical parts and assemblies' ) ;
#167 = CARTESIAN_POINT ( 'NONE',  ( -1.377574724221085839E-32, 4.831881693982172048E-34, -3.945530823537298820E-18 ) ) ;
#168 = DIRECTION ( 'NONE',  ( -3.491481338843133355E-15, 1.224646799147352961E-16, -1.000000000000000000 ) ) ;
#169 =( GEOMETRIC_REPRESENTATION_CONTEXT ( 3 ) GLOBAL_UNCERTAINTY_ASSIGNED_CONTEXT ( ( #8 ) ) GLOBAL_UNIT_ASSIGNED_CONTEXT ( ( #217, #260, #40 ) ) REPRESENTATION_CONTEXT ( 'NONE', 'WORKASPACE' ) );
#170 = DIRECTION ( 'NONE',  ( 3.491481338843133355E-15, -1.224646799147352961E-16, 1.000000000000000000 ) ) ;
#171 = FACE_OUTER_BOUND ( 'NONE', #67, .T. ) ;
#172 = VERTEX_POINT ( 'NONE', #252 ) ;
#173 = ORIENTED_EDGE ( 'NONE', *, *, #123, .T. ) ;
#174 = CC_DESIGN_SECURITY_CLASSIFICATION ( #13, ( #90 ) ) ;
#175 = ADVANCED_FACE ( 'NONE', ( #113, #147 ), #200, .T. ) ;
#176 = DIRECTION ( 'NONE',  ( -4.275831445896957731E-31, -1.000000000000000000, -1.224646799147352961E-16 ) ) ;
#177 = CC_DESIGN_PERSON_AND_ORGANIZATION_ASSIGNMENT ( #180, #240, ( #219 ) ) ;
#178 = AXIS2_PLACEMENT_3D ( 'NONE', #254, #56, #36 ) ;
#179 = VERTEX_POINT ( 'NONE', #190 ) ;
#180 = PERSON_AND_ORGANIZATION ( #68, #215 ) ;
#181 = CALENDAR_DATE ( 2021, 26, 11 ) ;
#182 = PERSON_AND_ORGANIZATION ( #68, #215 ) ;
#183 = EDGE_CURVE ( 'NONE', #85, #85, #233, .T. ) ;
#184 = COORDINATED_UNIVERSAL_TIME_OFFSET ( 1, 0, .AHEAD. ) ;
#185 = PRODUCT_DEFINITION ( 'UNKNOWN', '', #90, #31 ) ;
#186 = DIRECTION ( 'NONE',  ( -3.491481338843133355E-15, 1.224646799147352961E-16, -1.000000000000000000 ) ) ;
#187 = ADVANCED_BREP_SHAPE_REPRESENTATION ( '200011', ( #272, #261, #42 ), #169 ) ;
#188 = DIRECTION ( 'NONE',  ( 3.491481338843133355E-15, -1.224646799147352961E-16, 1.000000000000000000 ) ) ;
#189 = FACE_OUTER_BOUND ( 'NONE', #91, .T. ) ;
#190 = CARTESIAN_POINT ( 'NONE',  ( 4.795135791578120523E-14, 1.499999999999995559, 13.73381475143997221 ) ) ;
#191 = CONICAL_SURFACE ( 'NONE', #88, 1.200000000000003286, 0.7853981633974453924 ) ;
#192 = DIRECTION ( 'NONE',  ( -3.491481338843133355E-15, 1.224646799147352961E-16, -1.000000000000000000 ) ) ;
#193 = FACE_OUTER_BOUND ( 'NONE', #258, .T. ) ;
#194 = FACE_OUTER_BOUND ( 'NONE', #216, .T. ) ;
#195 = CARTESIAN_POINT ( 'NONE',  ( 1.396592535537253342E-14, 2.575837426721729959E-33, 4.000000000000000000 ) ) ;
#196 = VERTEX_POINT ( 'NONE', #132 ) ;
#197 = ORIENTED_EDGE ( 'NONE', *, *, #210, .F. ) ;
#198 = EDGE_CURVE ( 'NONE', #201, #201, #230, .T. ) ;
#199 = CIRCLE ( 'NONE', #72, 0.3434999999999991394 ) ;
#200 = CONICAL_SURFACE ( 'NONE', #7, 1.499999999999997113, 0.1745329251994261477 ) ;
#201 = VERTEX_POINT ( 'NONE', #110 ) ;
#202 = DIRECTION ( 'NONE',  ( 4.275831445896957731E-31, 1.000000000000000000, 1.224646799147352961E-16 ) ) ;
#203 = ORIENTED_EDGE ( 'NONE', *, *, #225, .F. ) ;
#204 = DIRECTION ( 'NONE',  ( 1.000000000000000000, 0.0000000000000000000, 0.0000000000000000000 ) ) ;
#205 = COORDINATED_UNIVERSAL_TIME_OFFSET ( 1, 0, .AHEAD. ) ;
#206 = PERSON_AND_ORGANIZATION_ROLE ( 'creator' ) ;
#207 = APPROVAL_DATE_TIME ( #26, #259 ) ;
#208 = CC_DESIGN_PERSON_AND_ORGANIZATION_ASSIGNMENT ( #142, #28, ( #90 ) ) ;
#209 = CARTESIAN_POINT ( 'NONE',  ( 0.0000000000000000000, 0.0000000000000000000, 0.0000000000000000000 ) ) ;
#210 = EDGE_CURVE ( 'NONE', #256, #256, #163, .T. ) ;
#211 = AXIS2_PLACEMENT_3D ( 'NONE', #10, #186, #79 ) ;
#212 = CARTESIAN_POINT ( 'NONE',  ( 4.795135791578120523E-14, -1.681907227543366106E-15, 13.73381475143997221 ) ) ;
#213 = DIRECTION ( 'NONE',  ( 0.0000000000000000000, 1.000000000000000000, 0.0000000000000000000 ) ) ;
#214 = DIRECTION ( 'NONE',  ( 0.0000000000000000000, 1.000000000000000000, 0.0000000000000000000 ) ) ;
#215 = ORGANIZATION ( 'UNSPECIFIED', 'UNSPECIFIED', '' ) ;
#216 = EDGE_LOOP ( 'NONE', ( #235 ) ) ;
#217 =( LENGTH_UNIT ( ) NAMED_UNIT ( * ) SI_UNIT ( .MILLI., .METRE. ) );
#218 = ORIENTED_EDGE ( 'NONE', *, *, #19, .T. ) ;
#219 = PRODUCT ( '200011', '200011', '', ( #75 ) ) ;
#220 = ORIENTED_EDGE ( 'NONE', *, *, #225, .T. ) ;
#221 = PLANE ( 'NONE',  #270 ) ;
#222 = PRODUCT_RELATED_PRODUCT_CATEGORY ( 'detail', '', ( #219 ) ) ;
#223 = LOCAL_TIME ( 15, 47, 20.00000000000000000, #74 ) ;
#224 = APPROVAL_ROLE ( '' ) ;
#225 = EDGE_CURVE ( 'NONE', #196, #196, #274, .T. ) ;
#226 = LOCAL_TIME ( 15, 47, 20.00000000000000000, #184 ) ;
#227 = DIRECTION ( 'NONE',  ( -4.275831445896957731E-31, -1.000000000000000000, -1.224646799147352961E-16 ) ) ;
#228 = FACE_OUTER_BOUND ( 'NONE', #2, .T. ) ;
#229 = DIRECTION ( 'NONE',  ( 0.0000000000000000000, 1.000000000000000000, 0.0000000000000000000 ) ) ;
#230 = CIRCLE ( 'NONE', #114, 0.2857649730810374877 ) ;
#231 = ADVANCED_FACE ( 'NONE', ( #21 ), #24, .F. ) ;
#232 = CARTESIAN_POINT ( 'NONE',  ( 1.396592535537253342E-14, -4.898587196589411843E-16, 4.000000000000000000 ) ) ;
#233 = CIRCLE ( 'NONE', #73, 1.200000000000003286 ) ;
#234 = DIRECTION ( 'NONE',  ( -3.491481338843133355E-15, 1.224646799147352961E-16, -1.000000000000000000 ) ) ;
#235 = ORIENTED_EDGE ( 'NONE', *, *, #183, .F. ) ;
#236 = APPLICATION_PROTOCOL_DEFINITION ( 'international standard', 'config_control_design', 1994, #152 ) ;
#237 = EDGE_LOOP ( 'NONE', ( #134 ) ) ;
#238 = EDGE_LOOP ( 'NONE', ( #220 ) ) ;
#239 = CARTESIAN_POINT ( 'NONE',  ( 0.0000000000000000000, 0.0000000000000000000, 0.0000000000000000000 ) ) ;
#240 = PERSON_AND_ORGANIZATION_ROLE ( 'design_owner' ) ;
#241 = ADVANCED_FACE ( 'NONE', ( #109, #156 ), #127, .T. ) ;
#242 = PERSON_AND_ORGANIZATION ( #68, #215 ) ;
#243 = DATE_AND_TIME ( #161, #223 ) ;
#244 = APPROVAL ( #93, 'UNSPECIFIED' ) ;
#245 = APPROVAL_PERSON_ORGANIZATION ( #122, #244, #9 ) ;
#246 = DIRECTION ( 'NONE',  ( -3.491481338843133355E-15, 1.224646799147352961E-16, -1.000000000000000000 ) ) ;
#247 = PERSON_AND_ORGANIZATION ( #68, #215 ) ;
#248 = ADVANCED_FACE ( 'NONE', ( #194 ), #221, .F. ) ;
#249 = CIRCLE ( 'NONE', #6, 0.3434999999999996945 ) ;
#250 = DIRECTION ( 'NONE',  ( 3.491481338843133355E-15, -1.224646799147352961E-16, 1.000000000000000000 ) ) ;
#251 = DIRECTION ( 'NONE',  ( 0.0000000000000000000, 1.000000000000000000, 0.0000000000000000000 ) ) ;
#252 = CARTESIAN_POINT ( 'NONE',  ( 1.316288464743861212E-13, 1.499999999999998668, 37.69999999999999574 ) ) ;
#253 = CARTESIAN_POINT ( 'NONE',  ( 1.326762908760390423E-13, -4.653657836759941152E-15, 38.00000000000000000 ) ) ;
#254 = CARTESIAN_POINT ( 'NONE',  ( 1.396592535537253342E-14, -4.898587196589411843E-16, 4.000000000000000000 ) ) ;
#255 = EDGE_LOOP ( 'NONE', ( #133 ) ) ;
#256 = VERTEX_POINT ( 'NONE', #155 ) ;
#257 = LOCAL_TIME ( 15, 47, 20.00000000000000000, #83 ) ;
#258 = EDGE_LOOP ( 'NONE', ( #264 ) ) ;
#259 = APPROVAL ( #46, 'UNSPECIFIED' ) ;
#260 =( NAMED_UNIT ( * ) PLANE_ANGLE_UNIT ( ) SI_UNIT ( $, .RADIAN. ) );
#261 = MANIFOLD_SOLID_BREP ( 'Corps-Déplacer/Copier1[2]', #70 ) ;
#262 = DIRECTION ( 'NONE',  ( -3.491481338843133355E-15, 1.224646799147352961E-16, -1.000000000000000000 ) ) ;
#263 = DIRECTION ( 'NONE',  ( 0.0000000000000000000, 1.000000000000000000, 0.0000000000000000000 ) ) ;
#264 = ORIENTED_EDGE ( 'NONE', *, *, #118, .T. ) ;
#265 = DIRECTION ( 'NONE',  ( -3.491481338843133355E-15, 1.224646799147352961E-16, -1.000000000000000000 ) ) ;
#266 = LOCAL_TIME ( 15, 47, 20.00000000000000000, #205 ) ;
#267 = ORIENTED_EDGE ( 'NONE', *, *, #183, .T. ) ;
#268 = VERTEX_POINT ( 'NONE', #150 ) ;
#269 = COORDINATED_UNIVERSAL_TIME_OFFSET ( 1, 0, .AHEAD. ) ;
#270 = AXIS2_PLACEMENT_3D ( 'NONE', #139, #45, #84 ) ;
#271 = PERSON_AND_ORGANIZATION_ROLE ( 'classification_officer' ) ;
#272 = MANIFOLD_SOLID_BREP ( 'Corps-Déplacer/Copier1[1]', #59 ) ;
#273 = CC_DESIGN_PERSON_AND_ORGANIZATION_ASSIGNMENT ( #121, #206, ( #185 ) ) ;
#274 = CIRCLE ( 'NONE', #178, 0.3434999999999996945 ) ;
#275 = APPROVAL_STATUS ( 'not_yet_approved' ) ;
#276 = ADVANCED_FACE ( 'NONE', ( #3 ), #92, .T. ) ;
#277 = DATE_TIME_ROLE ( 'classification_date' ) ;
#278 = CARTESIAN_POINT ( 'NONE',  ( 1.326762908760390423E-13, -4.653657836759941152E-15, 38.00000000000000000 ) ) ;
#279 = CARTESIAN_POINT ( 'NONE',  ( 2.444036937190193349E-14, 0.3434999999999991949, 7.000000000000000000 ) ) ;
#280 = ORIENTED_EDGE ( 'NONE', *, *, #158, .F. ) ;
#281 = FACE_BOUND ( 'NONE', #117, .T. ) ;
#282 = VERTEX_POINT ( 'NONE', #279 ) ;
#283 = AXIS2_PLACEMENT_3D ( 'NONE', #53, #188, #165 ) ;
ENDSEC;
END-ISO-10303-21;
