ISO-10303-21;
HEADER;
FILE_DESCRIPTION (( 'STEP AP203' ),
    '1' );
FILE_NAME ('200010.step',
    '2021-11-26T14:47:19',
    ( '' ),
    ( '' ),
    'SwSTEP 2.0',
    'SolidWorks 2019',
    '' );
FILE_SCHEMA (( 'CONFIG_CONTROL_DESIGN' ));
ENDSEC;

DATA;
#1 = ADVANCED_FACE ( 'NONE', ( #4, #208 ), #21, .T. ) ;
#2 = DIRECTION ( 'NONE',  ( 4.275831445896957731E-31, 1.000000000000000000, 1.224646799147352961E-16 ) ) ;
#3 = CARTESIAN_POINT ( 'NONE',  ( 1.396592535537253342E-14, -4.898587196589411843E-16, 4.000000000000000000 ) ) ;
#4 = FACE_OUTER_BOUND ( 'NONE', #191, .T. ) ;
#5 = FACE_OUTER_BOUND ( 'NONE', #18, .T. ) ;
#6 = DIRECTION ( 'NONE',  ( 0.0000000000000000000, 0.0000000000000000000, 1.000000000000000000 ) ) ;
#7 = DIRECTION ( 'NONE',  ( 3.491481338843133355E-15, -1.224646799147352961E-16, 1.000000000000000000 ) ) ;
#8 = PERSON_AND_ORGANIZATION ( #120, #10 ) ;
#9 = PERSON_AND_ORGANIZATION ( #120, #10 ) ;
#10 = ORGANIZATION ( 'UNSPECIFIED', 'UNSPECIFIED', '' ) ;
#11 = ADVANCED_FACE ( 'NONE', ( #77 ), #31, .F. ) ;
#12 = ORIENTED_EDGE ( 'NONE', *, *, #88, .T. ) ;
#13 = CALENDAR_DATE ( 2021, 26, 11 ) ;
#14 = APPROVAL_PERSON_ORGANIZATION ( #242, #176, #160 ) ;
#15 = DIRECTION ( 'NONE',  ( -3.491481338843133355E-15, 1.224646799147352961E-16, -1.000000000000000000 ) ) ;
#16 =( NAMED_UNIT ( * ) PLANE_ANGLE_UNIT ( ) SI_UNIT ( $, .RADIAN. ) );
#17 = FACE_OUTER_BOUND ( 'NONE', #122, .T. ) ;
#18 = EDGE_LOOP ( 'NONE', ( #132 ) ) ;
#19 = CARTESIAN_POINT ( 'NONE',  ( -1.566791871254678641E-31, 5.495566104609046797E-33, -4.487470271783892853E-17 ) ) ;
#20 = EDGE_LOOP ( 'NONE', ( #90 ) ) ;
#21 = CONICAL_SURFACE ( 'NONE', #116, 1.200000000000003286, 0.7853981633974453924 ) ;
#22 = PLANE ( 'NONE',  #104 ) ;
#23 = EDGE_CURVE ( 'NONE', #278, #278, #227, .T. ) ;
#24 = AXIS2_PLACEMENT_3D ( 'NONE', #60, #91, #148 ) ;
#25 = PERSON_AND_ORGANIZATION_ROLE ( 'classification_officer' ) ;
#26 = CARTESIAN_POINT ( 'NONE',  ( 1.326762908760390423E-13, -4.653657836759941152E-15, 38.00000000000000000 ) ) ;
#27 = PRODUCT_RELATED_PRODUCT_CATEGORY ( 'detail', '', ( #222 ) ) ;
#28 = AXIS2_PLACEMENT_3D ( 'NONE', #204, #228, #96 ) ;
#29 = DATE_AND_TIME ( #238, #44 ) ;
#30 = COORDINATED_UNIVERSAL_TIME_OFFSET ( 1, 0, .AHEAD. ) ;
#31 = PLANE ( 'NONE',  #211 ) ;
#32 = PERSON_AND_ORGANIZATION ( #120, #10 ) ;
#33 = CONICAL_SURFACE ( 'NONE', #62, 1.499999999999997113, 0.1745329251994260922 ) ;
#34 = APPLICATION_CONTEXT ( 'configuration controlled 3d designs of mechanical parts and assemblies' ) ;
#35 = CARTESIAN_POINT ( 'NONE',  ( 3.491481338843133848E-16, 0.3134999999999991127, 0.1000000000000000056 ) ) ;
#36 = DIRECTION ( 'NONE',  ( 0.0000000000000000000, -1.000000000000000000, 0.0000000000000000000 ) ) ;
#37 = CC_DESIGN_DATE_AND_TIME_ASSIGNMENT ( #106, #263, ( #139 ) ) ;
#38 = LOCAL_TIME ( 15, 47, 19.00000000000000000, #144 ) ;
#39 = CARTESIAN_POINT ( 'NONE',  ( 1.396592535537253342E-14, 2.350873459322450702E-33, 4.000000000000000000 ) ) ;
#40 = DIRECTION ( 'NONE',  ( -3.491481338843133355E-15, 1.224646799147352961E-16, -1.000000000000000000 ) ) ;
#41 = EDGE_LOOP ( 'NONE', ( #213 ) ) ;
#42 = FACE_OUTER_BOUND ( 'NONE', #115, .T. ) ;
#43 = AXIS2_PLACEMENT_3D ( 'NONE', #3, #261, #252 ) ;
#44 = LOCAL_TIME ( 15, 47, 19.00000000000000000, #190 ) ;
#45 = ADVANCED_FACE ( 'NONE', ( #258, #5 ), #145, .T. ) ;
#46 = FACE_OUTER_BOUND ( 'NONE', #267, .T. ) ;
#47 = DATE_AND_TIME ( #100, #38 ) ;
#48 = PERSON_AND_ORGANIZATION_ROLE ( 'design_owner' ) ;
#49 = VERTEX_POINT ( 'NONE', #186 ) ;
#50 = CC_DESIGN_APPROVAL ( #176, ( #139 ) ) ;
#51 = COORDINATED_UNIVERSAL_TIME_OFFSET ( 1, 0, .AHEAD. ) ;
#52 = PERSON_AND_ORGANIZATION_ROLE ( 'creator' ) ;
#53 = DIRECTION ( 'NONE',  ( 0.0000000000000000000, 1.000000000000000000, 0.0000000000000000000 ) ) ;
#54 = DIRECTION ( 'NONE',  ( -3.491481338843133355E-15, 1.224646799147352961E-16, -1.000000000000000000 ) ) ;
#55 = SECURITY_CLASSIFICATION_LEVEL ( 'unclassified' ) ;
#56 = CIRCLE ( 'NONE', #260, 0.2557649730810372946 ) ;
#57 = APPLICATION_PROTOCOL_DEFINITION ( 'international standard', 'config_control_design', 1994, #34 ) ;
#58 = DIRECTION ( 'NONE',  ( 0.0000000000000000000, 1.000000000000000000, 0.0000000000000000000 ) ) ;
#59 = EDGE_LOOP ( 'NONE', ( #82 ) ) ;
#60 = CARTESIAN_POINT ( 'NONE',  ( 2.444036937190193349E-14, -8.673617379884035472E-16, 7.000000000000000000 ) ) ;
#61 = DIRECTION ( 'NONE',  ( -3.491481338843133355E-15, 1.224646799147352961E-16, -1.000000000000000000 ) ) ;
#62 = AXIS2_PLACEMENT_3D ( 'NONE', #266, #243, #36 ) ;
#63 = FACE_OUTER_BOUND ( 'NONE', #173, .T. ) ;
#64 = ORIENTED_EDGE ( 'NONE', *, *, #136, .T. ) ;
#65 = PLANE ( 'NONE',  #130 ) ;
#66 = EDGE_LOOP ( 'NONE', ( #128 ) ) ;
#67 = APPROVAL ( #255, 'UNSPECIFIED' ) ;
#68 = DIRECTION ( 'NONE',  ( 4.275831445896957731E-31, 1.000000000000000000, 1.224646799147352961E-16 ) ) ;
#69 = ADVANCED_FACE ( 'NONE', ( #46, #138 ), #230, .T. ) ;
#70 = DIRECTION ( 'NONE',  ( 0.0000000000000000000, 1.000000000000000000, 0.0000000000000000000 ) ) ;
#71 = CIRCLE ( 'NONE', #134, 0.3438844939755812402 ) ;
#72 = CC_DESIGN_APPROVAL ( #271, ( #178 ) ) ;
#73 = ADVANCED_BREP_SHAPE_REPRESENTATION ( '200010', ( #142, #143, #194 ), #94 ) ;
#74 = DIRECTION ( 'NONE',  ( -3.491481338843133355E-15, 1.224646799147352961E-16, -1.000000000000000000 ) ) ;
#75 = CIRCLE ( 'NONE', #43, 0.3134999999999996123 ) ;
#76 = CARTESIAN_POINT ( 'NONE',  ( 3.491481338843132369E-16, -1.224646799147352498E-17, 0.09999999999999996392 ) ) ;
#77 = FACE_OUTER_BOUND ( 'NONE', #108, .T. ) ;
#78 = APPLICATION_PROTOCOL_DEFINITION ( 'international standard', 'config_control_design', 1994, #226 ) ;
#79 = VERTEX_POINT ( 'NONE', #259 ) ;
#80 = PERSON_AND_ORGANIZATION_ROLE ( 'design_supplier' ) ;
#81 = CC_DESIGN_PERSON_AND_ORGANIZATION_ASSIGNMENT ( #159, #183, ( #178 ) ) ;
#82 = ORIENTED_EDGE ( 'NONE', *, *, #136, .F. ) ;
#83 = AXIS2_PLACEMENT_3D ( 'NONE', #26, #118, #269 ) ;
#84 = VERTEX_POINT ( 'NONE', #264 ) ;
#85 = FACE_OUTER_BOUND ( 'NONE', #105, .T. ) ;
#86 = DIRECTION ( 'NONE',  ( -4.275831445896957731E-31, -1.000000000000000000, -1.224646799147352961E-16 ) ) ;
#87 = VERTEX_POINT ( 'NONE', #197 ) ;
#88 = EDGE_CURVE ( 'NONE', #49, #49, #165, .T. ) ;
#89 = CARTESIAN_POINT ( 'NONE',  ( 2.565294811559829736E-14, -8.997842963946609330E-16, 7.347296355333847728 ) ) ;
#90 = ORIENTED_EDGE ( 'NONE', *, *, #247, .F. ) ;
#91 = DIRECTION ( 'NONE',  ( -3.491481338843133355E-15, 1.224646799147352961E-16, -1.000000000000000000 ) ) ;
#92 = ORIENTED_EDGE ( 'NONE', *, *, #175, .T. ) ;
#93 = ADVANCED_FACE ( 'NONE', ( #17 ), #22, .F. ) ;
#94 =( GEOMETRIC_REPRESENTATION_CONTEXT ( 3 ) GLOBAL_UNCERTAINTY_ASSIGNED_CONTEXT ( ( #202 ) ) GLOBAL_UNIT_ASSIGNED_CONTEXT ( ( #221, #16, #166 ) ) REPRESENTATION_CONTEXT ( 'NONE', 'WORKASPACE' ) );
#95 = CARTESIAN_POINT ( 'NONE',  ( 0.0000000000000000000, 0.0000000000000000000, 0.0000000000000000000 ) ) ;
#96 = DIRECTION ( 'NONE',  ( 4.275831445896957731E-31, 1.000000000000000000, 1.224646799147352961E-16 ) ) ;
#97 = SHAPE_DEFINITION_REPRESENTATION ( #172, #73 ) ;
#98 = DIRECTION ( 'NONE',  ( 1.000000000000000000, 0.0000000000000000000, 0.0000000000000000000 ) ) ;
#99 = AXIS2_PLACEMENT_3D ( 'NONE', #282, #15, #68 ) ;
#100 = CALENDAR_DATE ( 2021, 26, 11 ) ;
#101 = APPROVAL_STATUS ( 'not_yet_approved' ) ;
#102 = CARTESIAN_POINT ( 'NONE',  ( 2.444036937190193349E-14, 0.3134999999999991127, 7.000000000000000000 ) ) ;
#103 = CLOSED_SHELL ( 'NONE', ( #11, #45, #192, #229 ) ) ;
#104 = AXIS2_PLACEMENT_3D ( 'NONE', #219, #195, #86 ) ;
#105 = EDGE_LOOP ( 'NONE', ( #92 ) ) ;
#106 = DATE_AND_TIME ( #13, #155 ) ;
#107 = CC_DESIGN_PERSON_AND_ORGANIZATION_ASSIGNMENT ( #275, #52, ( #110 ) ) ;
#108 = EDGE_LOOP ( 'NONE', ( #64 ) ) ;
#109 = CLOSED_SHELL ( 'NONE', ( #93, #129, #200, #207, #69, #1, #237 ) ) ;
#110 = PRODUCT_DEFINITION_FORMATION_WITH_SPECIFIED_SOURCE ( 'ANY', '', #222, .NOT_KNOWN. ) ;
#111 = APPROVAL_STATUS ( 'not_yet_approved' ) ;
#112 = DIRECTION ( 'NONE',  ( -3.491481338843133355E-15, 1.224646799147352961E-16, -1.000000000000000000 ) ) ;
#113 = DIRECTION ( 'NONE',  ( 3.491481338843133355E-15, -1.224646799147352961E-16, 1.000000000000000000 ) ) ;
#114 = DIRECTION ( 'NONE',  ( 4.275831445896957731E-31, 1.000000000000000000, 1.224646799147352961E-16 ) ) ;
#115 = EDGE_LOOP ( 'NONE', ( #244 ) ) ;
#116 = AXIS2_PLACEMENT_3D ( 'NONE', #184, #54, #232 ) ;
#117 = DIRECTION ( 'NONE',  ( -3.491481338843133355E-15, 1.224646799147352961E-16, -1.000000000000000000 ) ) ;
#118 = DIRECTION ( 'NONE',  ( -3.491481338843133355E-15, 1.224646799147352961E-16, -1.000000000000000000 ) ) ;
#119 = CC_DESIGN_APPROVAL ( #67, ( #110 ) ) ;
#120 = PERSON ( 'UNSPECIFIED', 'UNSPECIFIED', 'UNSPECIFIED', ('UNSPECIFIED'), ('UNSPECIFIED'), ('UNSPECIFIED') ) ;
#121 = AXIS2_PLACEMENT_3D ( 'NONE', #135, #74, #180 ) ;
#122 = EDGE_LOOP ( 'NONE', ( #125 ) ) ;
#123 = COORDINATED_UNIVERSAL_TIME_OFFSET ( 1, 0, .AHEAD. ) ;
#124 = CC_DESIGN_PERSON_AND_ORGANIZATION_ASSIGNMENT ( #214, #48, ( #222 ) ) ;
#125 = ORIENTED_EDGE ( 'NONE', *, *, #247, .T. ) ;
#126 = VERTEX_POINT ( 'NONE', #149 ) ;
#127 = FACE_OUTER_BOUND ( 'NONE', #170, .T. ) ;
#128 = ORIENTED_EDGE ( 'NONE', *, *, #23, .F. ) ;
#129 = ADVANCED_FACE ( 'NONE', ( #268, #167 ), #250, .T. ) ;
#130 = AXIS2_PLACEMENT_3D ( 'NONE', #39, #113, #196 ) ;
#131 = CARTESIAN_POINT ( 'NONE',  ( 0.0000000000000000000, 0.0000000000000000000, 0.0000000000000000000 ) ) ;
#132 = ORIENTED_EDGE ( 'NONE', *, *, #251, .T. ) ;
#133 = CYLINDRICAL_SURFACE ( 'NONE', #276, 0.3134999999999993348 ) ;
#134 = AXIS2_PLACEMENT_3D ( 'NONE', #89, #117, #58 ) ;
#135 = CARTESIAN_POINT ( 'NONE',  ( 3.491481338843132369E-16, -1.224646799147352498E-17, 0.09999999999999996392 ) ) ;
#136 = EDGE_CURVE ( 'NONE', #235, #235, #56, .T. ) ;
#137 = AXIS2_PLACEMENT_3D ( 'NONE', #177, #153, #70 ) ;
#138 = FACE_OUTER_BOUND ( 'NONE', #164, .T. ) ;
#139 = SECURITY_CLASSIFICATION ( '', '', #55 ) ;
#140 = DATE_AND_TIME ( #206, #174 ) ;
#141 = APPROVAL_ROLE ( '' ) ;
#142 = MANIFOLD_SOLID_BREP ( 'Corps-Déplacer/Copier1[1]', #109 ) ;
#143 = MANIFOLD_SOLID_BREP ( 'Corps-Déplacer/Copier1[2]', #103 ) ;
#144 = COORDINATED_UNIVERSAL_TIME_OFFSET ( 1, 0, .AHEAD. ) ;
#145 = CONICAL_SURFACE ( 'NONE', #217, 0.3134999999999991127, 0.5235987755982930425 ) ;
#146 = FACE_OUTER_BOUND ( 'NONE', #198, .T. ) ;
#147 = EDGE_LOOP ( 'NONE', ( #193 ) ) ;
#148 = DIRECTION ( 'NONE',  ( 4.398957883375848343E-31, 1.000000000000000000, 1.224646799147352961E-16 ) ) ;
#149 = CARTESIAN_POINT ( 'NONE',  ( 1.396592535537253342E-14, 0.3134999999999991127, 4.000000000000000000 ) ) ;
#150 = PLANE ( 'NONE',  #28 ) ;
#151 = ORIENTED_EDGE ( 'NONE', *, *, #187, .T. ) ;
#152 = DIRECTION ( 'NONE',  ( 0.0000000000000000000, 1.000000000000000000, 0.0000000000000000000 ) ) ;
#153 = DIRECTION ( 'NONE',  ( -3.491481338843133355E-15, 1.224646799147352961E-16, -1.000000000000000000 ) ) ;
#154 = CARTESIAN_POINT ( 'NONE',  ( 1.316288464743861212E-13, -4.616918432785520292E-15, 37.69999999999999574 ) ) ;
#155 = LOCAL_TIME ( 15, 47, 19.00000000000000000, #123 ) ;
#156 = DIRECTION ( 'NONE',  ( 3.491481338843133355E-15, -1.224646799147352961E-16, 1.000000000000000000 ) ) ;
#157 = CARTESIAN_POINT ( 'NONE',  ( -7.833959356273393204E-32, 2.747783052304523398E-33, -2.243735135891946427E-17 ) ) ;
#158 = DATE_AND_TIME ( #233, #199 ) ;
#159 = PERSON_AND_ORGANIZATION ( #120, #10 ) ;
#160 = APPROVAL_ROLE ( '' ) ;
#161 = CARTESIAN_POINT ( 'NONE',  ( 2.444036937190193349E-14, -8.572527594031471218E-16, 7.000000000000000000 ) ) ;
#162 = CC_DESIGN_DATE_AND_TIME_ASSIGNMENT ( #158, #240, ( #178 ) ) ;
#163 = APPROVAL_DATE_TIME ( #47, #271 ) ;
#164 = EDGE_LOOP ( 'NONE', ( #223 ) ) ;
#165 = CIRCLE ( 'NONE', #224, 1.499999999999997113 ) ;
#166 =( NAMED_UNIT ( * ) SI_UNIT ( $, .STERADIAN. ) SOLID_ANGLE_UNIT ( ) );
#167 = FACE_OUTER_BOUND ( 'NONE', #41, .T. ) ;
#168 = ORIENTED_EDGE ( 'NONE', *, *, #279, .F. ) ;
#169 = CARTESIAN_POINT ( 'NONE',  ( 1.326762908760390423E-13, 1.199999999999998845, 38.00000000000000000 ) ) ;
#170 = EDGE_LOOP ( 'NONE', ( #249 ) ) ;
#171 = APPROVAL_PERSON_ORGANIZATION ( #8, #271, #256 ) ;
#172 = PRODUCT_DEFINITION_SHAPE ( 'NONE', 'NONE',  #178 ) ;
#173 = EDGE_LOOP ( 'NONE', ( #281 ) ) ;
#174 = LOCAL_TIME ( 15, 47, 19.00000000000000000, #30 ) ;
#175 = EDGE_CURVE ( 'NONE', #79, #79, #71, .T. ) ;
#176 = APPROVAL ( #111, 'UNSPECIFIED' ) ;
#177 = CARTESIAN_POINT ( 'NONE',  ( 1.396592535537253342E-14, -4.898587196589411843E-16, 4.000000000000000000 ) ) ;
#178 = PRODUCT_DEFINITION ( 'UNKNOWN', '', #110, #272 ) ;
#179 = DIRECTION ( 'NONE',  ( -3.491481338843133355E-15, 1.224646799147352961E-16, -1.000000000000000000 ) ) ;
#180 = DIRECTION ( 'NONE',  ( 4.607487905232634376E-31, 1.000000000000000000, 1.296892550819984960E-16 ) ) ;
#181 = AXIS2_PLACEMENT_3D ( 'NONE', #262, #61, #273 ) ;
#182 = CC_DESIGN_PERSON_AND_ORGANIZATION_ASSIGNMENT ( #210, #80, ( #110 ) ) ;
#183 = PERSON_AND_ORGANIZATION_ROLE ( 'creator' ) ;
#184 = CARTESIAN_POINT ( 'NONE',  ( 1.326762908760390423E-13, -4.653657836759941152E-15, 38.00000000000000000 ) ) ;
#185 = APPROVAL_DATE_TIME ( #29, #67 ) ;
#186 = CARTESIAN_POINT ( 'NONE',  ( 4.854539315499669860E-14, 1.499999999999995559, 13.90395320602851115 ) ) ;
#187 = EDGE_CURVE ( 'NONE', #84, #84, #75, .T. ) ;
#188 = TOROIDAL_SURFACE ( 'NONE', #24, 2.313499999999999890, 2.000000000000000000 ) ;
#189 = DIRECTION ( 'NONE',  ( -4.275831445896957731E-31, -1.000000000000000000, -1.224646799147352961E-16 ) ) ;
#190 = COORDINATED_UNIVERSAL_TIME_OFFSET ( 1, 0, .AHEAD. ) ;
#191 = EDGE_LOOP ( 'NONE', ( #168 ) ) ;
#192 = ADVANCED_FACE ( 'NONE', ( #42, #216 ), #133, .T. ) ;
#193 = ORIENTED_EDGE ( 'NONE', *, *, #241, .T. ) ;
#194 = AXIS2_PLACEMENT_3D ( 'NONE', #95, #6, #98 ) ;
#195 = DIRECTION ( 'NONE',  ( 3.491481338843133355E-15, -1.224646799147352961E-16, 1.000000000000000000 ) ) ;
#196 = DIRECTION ( 'NONE',  ( -4.275831445896957731E-31, -1.000000000000000000, -1.224646799147352961E-16 ) ) ;
#197 = CARTESIAN_POINT ( 'NONE',  ( 1.316288464743861212E-13, 1.499999999999998668, 37.69999999999999574 ) ) ;
#198 = EDGE_LOOP ( 'NONE', ( #12 ) ) ;
#199 = LOCAL_TIME ( 15, 47, 19.00000000000000000, #51 ) ;
#200 = ADVANCED_FACE ( 'NONE', ( #225, #85 ), #188, .F. ) ;
#201 = AXIS2_PLACEMENT_3D ( 'NONE', #154, #274, #53 ) ;
#202 = UNCERTAINTY_MEASURE_WITH_UNIT (LENGTH_MEASURE( 1.000000000000000082E-05 ), #221, 'distance_accuracy_value', 'NONE');
#203 = DIRECTION ( 'NONE',  ( 0.0000000000000000000, 1.000000000000000000, 0.0000000000000000000 ) ) ;
#204 = CARTESIAN_POINT ( 'NONE',  ( 1.326762908760390423E-13, 8.998558695971099120E-33, 38.00000000000000000 ) ) ;
#205 = CIRCLE ( 'NONE', #83, 1.200000000000003286 ) ;
#206 = CALENDAR_DATE ( 2021, 26, 11 ) ;
#207 = ADVANCED_FACE ( 'NONE', ( #245, #146 ), #33, .T. ) ;
#208 = FACE_BOUND ( 'NONE', #147, .T. ) ;
#209 = APPROVAL_DATE_TIME ( #140, #176 ) ;
#210 = PERSON_AND_ORGANIZATION ( #120, #10 ) ;
#211 = AXIS2_PLACEMENT_3D ( 'NONE', #157, #7, #189 ) ;
#212 = CIRCLE ( 'NONE', #137, 0.3134999999999996123 ) ;
#213 = ORIENTED_EDGE ( 'NONE', *, *, #23, .T. ) ;
#214 = PERSON_AND_ORGANIZATION ( #120, #10 ) ;
#215 = VERTEX_POINT ( 'NONE', #169 ) ;
#216 = FACE_OUTER_BOUND ( 'NONE', #220, .T. ) ;
#217 = AXIS2_PLACEMENT_3D ( 'NONE', #76, #156, #254 ) ;
#218 = VERTEX_POINT ( 'NONE', #35 ) ;
#219 = CARTESIAN_POINT ( 'NONE',  ( 1.396592535537253342E-14, 2.350873459322450702E-33, 4.000000000000000000 ) ) ;
#220 = EDGE_LOOP ( 'NONE', ( #151 ) ) ;
#221 =( LENGTH_UNIT ( ) NAMED_UNIT ( * ) SI_UNIT ( .MILLI., .METRE. ) );
#222 = PRODUCT ( '200010', '200010', '', ( #280 ) ) ;
#223 = ORIENTED_EDGE ( 'NONE', *, *, #279, .T. ) ;
#224 = AXIS2_PLACEMENT_3D ( 'NONE', #231, #112, #152 ) ;
#225 = FACE_OUTER_BOUND ( 'NONE', #66, .T. ) ;
#226 = APPLICATION_CONTEXT ( 'configuration controlled 3d designs of mechanical parts and assemblies' ) ;
#227 = CIRCLE ( 'NONE', #236, 0.3135000000000000009 ) ;
#228 = DIRECTION ( 'NONE',  ( -3.491481338843133355E-15, 1.224646799147352961E-16, -1.000000000000000000 ) ) ;
#229 = ADVANCED_FACE ( 'NONE', ( #127 ), #65, .T. ) ;
#230 = CYLINDRICAL_SURFACE ( 'NONE', #181, 1.500000000000000222 ) ;
#231 = CARTESIAN_POINT ( 'NONE',  ( 4.854539315499669860E-14, -1.702743178925739035E-15, 13.90395320602851115 ) ) ;
#232 = DIRECTION ( 'NONE',  ( 0.0000000000000000000, 1.000000000000000000, 0.0000000000000000000 ) ) ;
#233 = CALENDAR_DATE ( 2021, 26, 11 ) ;
#234 = CIRCLE ( 'NONE', #201, 1.500000000000003331 ) ;
#235 = VERTEX_POINT ( 'NONE', #277 ) ;
#236 = AXIS2_PLACEMENT_3D ( 'NONE', #161, #179, #203 ) ;
#237 = ADVANCED_FACE ( 'NONE', ( #63 ), #150, .F. ) ;
#238 = CALENDAR_DATE ( 2021, 26, 11 ) ;
#239 = CC_DESIGN_PERSON_AND_ORGANIZATION_ASSIGNMENT ( #32, #25, ( #139 ) ) ;
#240 = DATE_TIME_ROLE ( 'creation_date' ) ;
#241 = EDGE_CURVE ( 'NONE', #215, #215, #205, .T. ) ;
#242 = PERSON_AND_ORGANIZATION ( #120, #10 ) ;
#243 = DIRECTION ( 'NONE',  ( 3.491481338843133355E-15, -1.224646799147352961E-16, 1.000000000000000000 ) ) ;
#244 = ORIENTED_EDGE ( 'NONE', *, *, #251, .F. ) ;
#245 = FACE_BOUND ( 'NONE', #246, .T. ) ;
#246 = EDGE_LOOP ( 'NONE', ( #265 ) ) ;
#247 = EDGE_CURVE ( 'NONE', #126, #126, #212, .T. ) ;
#248 = DIRECTION ( 'NONE',  ( -3.491481338843133355E-15, 1.224646799147352961E-16, -1.000000000000000000 ) ) ;
#249 = ORIENTED_EDGE ( 'NONE', *, *, #187, .F. ) ;
#250 = CYLINDRICAL_SURFACE ( 'NONE', #99, 0.3134999999999997788 ) ;
#251 = EDGE_CURVE ( 'NONE', #218, #218, #253, .T. ) ;
#252 = DIRECTION ( 'NONE',  ( 0.0000000000000000000, 1.000000000000000000, 0.0000000000000000000 ) ) ;
#253 = CIRCLE ( 'NONE', #121, 0.3134999999999991127 ) ;
#254 = DIRECTION ( 'NONE',  ( -4.607487905232634376E-31, -1.000000000000000000, -1.296892550819984960E-16 ) ) ;
#255 = APPROVAL_STATUS ( 'not_yet_approved' ) ;
#256 = APPROVAL_ROLE ( '' ) ;
#257 = CC_DESIGN_SECURITY_CLASSIFICATION ( #139, ( #110 ) ) ;
#258 = FACE_BOUND ( 'NONE', #59, .T. ) ;
#259 = CARTESIAN_POINT ( 'NONE',  ( 2.565294811559829736E-14, 0.3438844939755802965, 7.347296355333847728 ) ) ;
#260 = AXIS2_PLACEMENT_3D ( 'NONE', #19, #248, #2 ) ;
#261 = DIRECTION ( 'NONE',  ( -3.491481338843133355E-15, 1.224646799147352961E-16, -1.000000000000000000 ) ) ;
#262 = CARTESIAN_POINT ( 'NONE',  ( 0.0000000000000000000, 0.0000000000000000000, 0.0000000000000000000 ) ) ;
#263 = DATE_TIME_ROLE ( 'classification_date' ) ;
#264 = CARTESIAN_POINT ( 'NONE',  ( 1.396592535537253342E-14, 0.3134999999999991127, 4.000000000000000000 ) ) ;
#265 = ORIENTED_EDGE ( 'NONE', *, *, #175, .F. ) ;
#266 = CARTESIAN_POINT ( 'NONE',  ( 4.854539315499669860E-14, -1.702743178925739035E-15, 13.90395320602851115 ) ) ;
#267 = EDGE_LOOP ( 'NONE', ( #283 ) ) ;
#268 = FACE_OUTER_BOUND ( 'NONE', #20, .T. ) ;
#269 = DIRECTION ( 'NONE',  ( 0.0000000000000000000, 1.000000000000000000, 0.0000000000000000000 ) ) ;
#270 = APPROVAL_PERSON_ORGANIZATION ( #9, #67, #141 ) ;
#271 = APPROVAL ( #101, 'UNSPECIFIED' ) ;
#272 = DESIGN_CONTEXT ( 'detailed design', #226, 'design' ) ;
#273 = DIRECTION ( 'NONE',  ( 4.275831445896957731E-31, 1.000000000000000000, 1.224646799147353207E-16 ) ) ;
#274 = DIRECTION ( 'NONE',  ( -3.491481338843133355E-15, 1.224646799147352961E-16, -1.000000000000000000 ) ) ;
#275 = PERSON_AND_ORGANIZATION ( #120, #10 ) ;
#276 = AXIS2_PLACEMENT_3D ( 'NONE', #131, #40, #114 ) ;
#277 = CARTESIAN_POINT ( 'NONE',  ( -4.731839565957905581E-32, 0.2557649730810372946, -1.355252715606880543E-17 ) ) ;
#278 = VERTEX_POINT ( 'NONE', #102 ) ;
#279 = EDGE_CURVE ( 'NONE', #87, #87, #234, .T. ) ;
#280 = MECHANICAL_CONTEXT ( 'NONE', #34, 'mechanical' ) ;
#281 = ORIENTED_EDGE ( 'NONE', *, *, #241, .F. ) ;
#282 = CARTESIAN_POINT ( 'NONE',  ( 0.0000000000000000000, 0.0000000000000000000, 0.0000000000000000000 ) ) ;
#283 = ORIENTED_EDGE ( 'NONE', *, *, #88, .F. ) ;
ENDSEC;
END-ISO-10303-21;
