ISO-10303-21;
HEADER;
FILE_DESCRIPTION (( 'STEP AP203' ),
    '1' );
FILE_NAME ('200009.step',
    '2021-11-26T14:47:19',
    ( '' ),
    ( '' ),
    'SwSTEP 2.0',
    'SolidWorks 2019',
    '' );
FILE_SCHEMA (( 'CONFIG_CONTROL_DESIGN' ));
ENDSEC;

DATA;
#1 = DIRECTION ( 'NONE',  ( 4.397826596480440032E-31, 1.000000000000000000, 1.224646799147352961E-16 ) ) ;
#2 = CARTESIAN_POINT ( 'NONE',  ( 1.396592535537253342E-14, 2.650825415854822361E-33, 4.000000000000000000 ) ) ;
#3 = DIRECTION ( 'NONE',  ( 0.0000000000000000000, 1.000000000000000000, 0.0000000000000000000 ) ) ;
#4 = APPROVAL_ROLE ( '' ) ;
#5 = DATE_AND_TIME ( #215, #263 ) ;
#6 = EDGE_CURVE ( 'NONE', #13, #13, #198, .T. ) ;
#7 = ADVANCED_FACE ( 'NONE', ( #162, #25 ), #228, .T. ) ;
#8 = EDGE_LOOP ( 'NONE', ( #220 ) ) ;
#9 = CARTESIAN_POINT ( 'NONE',  ( 0.0000000000000000000, 0.0000000000000000000, 0.0000000000000000000 ) ) ;
#10 = DESIGN_CONTEXT ( 'detailed design', #251, 'design' ) ;
#11 = APPROVAL_DATE_TIME ( #268, #52 ) ;
#12 = APPROVAL_ROLE ( '' ) ;
#13 = VERTEX_POINT ( 'NONE', #175 ) ;
#14 = ORIENTED_EDGE ( 'NONE', *, *, #138, .F. ) ;
#15 = FACE_OUTER_BOUND ( 'NONE', #197, .T. ) ;
#16 = ORIENTED_EDGE ( 'NONE', *, *, #54, .F. ) ;
#17 = APPROVAL_PERSON_ORGANIZATION ( #93, #174, #4 ) ;
#18 = CALENDAR_DATE ( 2021, 26, 11 ) ;
#19 = DIRECTION ( 'NONE',  ( -3.491481338843133355E-15, 1.224646799147352961E-16, -1.000000000000000000 ) ) ;
#20 = EDGE_CURVE ( 'NONE', #75, #75, #22, .T. ) ;
#21 = FACE_OUTER_BOUND ( 'NONE', #107, .T. ) ;
#22 = CIRCLE ( 'NONE', #104, 1.500000000000003331 ) ;
#23 = DIRECTION ( 'NONE',  ( -3.491481338843133355E-15, 1.224646799147352961E-16, -1.000000000000000000 ) ) ;
#24 = CC_DESIGN_APPROVAL ( #174, ( #219 ) ) ;
#25 = FACE_BOUND ( 'NONE', #194, .T. ) ;
#26 = CARTESIAN_POINT ( 'NONE',  ( 2.444036937190193349E-14, -8.673617379884035472E-16, 7.000000000000000000 ) ) ;
#27 = CARTESIAN_POINT ( 'NONE',  ( 1.396592535537253342E-14, -4.898587196589411843E-16, 4.000000000000000000 ) ) ;
#28 = ADVANCED_FACE ( 'NONE', ( #109 ), #180, .T. ) ;
#29 = PERSON_AND_ORGANIZATION_ROLE ( 'design_owner' ) ;
#30 = EDGE_LOOP ( 'NONE', ( #218 ) ) ;
#31 = PRODUCT_DEFINITION ( 'UNKNOWN', '', #219, #10 ) ;
#32 =( GEOMETRIC_REPRESENTATION_CONTEXT ( 3 ) GLOBAL_UNCERTAINTY_ASSIGNED_CONTEXT ( ( #71 ) ) GLOBAL_UNIT_ASSIGNED_CONTEXT ( ( #170, #269, #244 ) ) REPRESENTATION_CONTEXT ( 'NONE', 'WORKASPACE' ) );
#33 = APPLICATION_PROTOCOL_DEFINITION ( 'international standard', 'config_control_design', 1994, #152 ) ;
#34 = EDGE_LOOP ( 'NONE', ( #69 ) ) ;
#35 = PERSON_AND_ORGANIZATION ( #81, #50 ) ;
#36 = AXIS2_PLACEMENT_3D ( 'NONE', #141, #231, #207 ) ;
#37 = CIRCLE ( 'NONE', #40, 0.3535000000000000919 ) ;
#38 = ORIENTED_EDGE ( 'NONE', *, *, #189, .T. ) ;
#39 = DIRECTION ( 'NONE',  ( -3.491481338843133355E-15, 1.224646799147352961E-16, -1.000000000000000000 ) ) ;
#40 = AXIS2_PLACEMENT_3D ( 'NONE', #82, #45, #206 ) ;
#41 = CARTESIAN_POINT ( 'NONE',  ( 0.0000000000000000000, 0.0000000000000000000, 0.0000000000000000000 ) ) ;
#42 = DIRECTION ( 'NONE',  ( -3.491481338843133355E-15, 1.224646799147352961E-16, -1.000000000000000000 ) ) ;
#43 = DIRECTION ( 'NONE',  ( -4.275831445896957731E-31, -1.000000000000000000, -1.224646799147352961E-16 ) ) ;
#44 = AXIS2_PLACEMENT_3D ( 'NONE', #127, #19, #279 ) ;
#45 = DIRECTION ( 'NONE',  ( -3.491481338843133355E-15, 1.224646799147352961E-16, -1.000000000000000000 ) ) ;
#46 = ADVANCED_FACE ( 'NONE', ( #183, #258 ), #56, .F. ) ;
#47 = DIRECTION ( 'NONE',  ( 3.491481338843133355E-15, -1.224646799147352961E-16, 1.000000000000000000 ) ) ;
#48 = CALENDAR_DATE ( 2021, 26, 11 ) ;
#49 = CLOSED_SHELL ( 'NONE', ( #234, #249, #46, #213, #281, #7, #95 ) ) ;
#50 = ORGANIZATION ( 'UNSPECIFIED', 'UNSPECIFIED', '' ) ;
#51 = SECURITY_CLASSIFICATION ( '', '', #151 ) ;
#52 = APPROVAL ( #112, 'UNSPECIFIED' ) ;
#53 = CARTESIAN_POINT ( 'NONE',  ( 1.316288464743861212E-13, 1.499999999999998668, 37.69999999999999574 ) ) ;
#54 = EDGE_CURVE ( 'NONE', #223, #223, #262, .T. ) ;
#55 = CYLINDRICAL_SURFACE ( 'NONE', #282, 1.500000000000000222 ) ;
#56 = TOROIDAL_SURFACE ( 'NONE', #125, 2.353499999999999925, 2.000000000000000000 ) ;
#57 = DIRECTION ( 'NONE',  ( 0.0000000000000000000, 1.000000000000000000, 0.0000000000000000000 ) ) ;
#58 = CARTESIAN_POINT ( 'NONE',  ( 1.396592535537253342E-14, -4.898587196589411843E-16, 4.000000000000000000 ) ) ;
#59 = FACE_OUTER_BOUND ( 'NONE', #156, .T. ) ;
#60 = VERTEX_POINT ( 'NONE', #111 ) ;
#61 = LOCAL_TIME ( 15, 47, 19.00000000000000000, #96 ) ;
#62 = DIRECTION ( 'NONE',  ( 0.0000000000000000000, 1.000000000000000000, 0.0000000000000000000 ) ) ;
#63 = DIRECTION ( 'NONE',  ( 0.0000000000000000000, -1.000000000000000000, 0.0000000000000000000 ) ) ;
#64 = PERSON_AND_ORGANIZATION ( #81, #50 ) ;
#65 = EDGE_CURVE ( 'NONE', #154, #154, #208, .T. ) ;
#66 = CC_DESIGN_PERSON_AND_ORGANIZATION_ASSIGNMENT ( #158, #121, ( #51 ) ) ;
#67 = CONICAL_SURFACE ( 'NONE', #171, 0.3534999999999990927, 0.5235987755982929315 ) ;
#68 = EDGE_LOOP ( 'NONE', ( #264 ) ) ;
#69 = ORIENTED_EDGE ( 'NONE', *, *, #77, .T. ) ;
#70 = PERSON_AND_ORGANIZATION ( #81, #50 ) ;
#71 = UNCERTAINTY_MEASURE_WITH_UNIT (LENGTH_MEASURE( 1.000000000000000082E-05 ), #170, 'distance_accuracy_value', 'NONE');
#72 = EDGE_LOOP ( 'NONE', ( #114 ) ) ;
#73 = AXIS2_PLACEMENT_3D ( 'NONE', #9, #131, #113 ) ;
#74 = SHAPE_DEFINITION_REPRESENTATION ( #259, #90 ) ;
#75 = VERTEX_POINT ( 'NONE', #53 ) ;
#76 = CARTESIAN_POINT ( 'NONE',  ( 4.775334616937604919E-14, 1.499999999999995559, 13.67710193324379375 ) ) ;
#77 = EDGE_CURVE ( 'NONE', #60, #60, #37, .T. ) ;
#78 = AXIS2_PLACEMENT_3D ( 'NONE', #167, #47, #63 ) ;
#79 = DIRECTION ( 'NONE',  ( -3.491481338843133355E-15, 1.224646799147352961E-16, -1.000000000000000000 ) ) ;
#80 = PERSON_AND_ORGANIZATION_ROLE ( 'design_supplier' ) ;
#81 = PERSON ( 'UNSPECIFIED', 'UNSPECIFIED', 'UNSPECIFIED', ('UNSPECIFIED'), ('UNSPECIFIED'), ('UNSPECIFIED') ) ;
#82 = CARTESIAN_POINT ( 'NONE',  ( 2.444036937190193349E-14, -8.572527594031471218E-16, 7.000000000000000000 ) ) ;
#83 = ADVANCED_FACE ( 'NONE', ( #266 ), #88, .F. ) ;
#84 = COORDINATED_UNIVERSAL_TIME_OFFSET ( 1, 0, .AHEAD. ) ;
#85 = DIRECTION ( 'NONE',  ( -4.275831445896957731E-31, -1.000000000000000000, -1.224646799147352961E-16 ) ) ;
#86 = EDGE_LOOP ( 'NONE', ( #102 ) ) ;
#87 = DIRECTION ( 'NONE',  ( -3.491481338843133355E-15, 1.224646799147352961E-16, -1.000000000000000000 ) ) ;
#88 = PLANE ( 'NONE',  #250 ) ;
#89 = DIRECTION ( 'NONE',  ( -3.491481338843133355E-15, 1.224646799147352961E-16, -1.000000000000000000 ) ) ;
#90 = ADVANCED_BREP_SHAPE_REPRESENTATION ( '200009', ( #177, #176, #73 ), #32 ) ;
#91 = DIRECTION ( 'NONE',  ( 4.275831445896957731E-31, 1.000000000000000000, 1.224646799147352961E-16 ) ) ;
#92 = APPROVAL_DATE_TIME ( #5, #174 ) ;
#93 = PERSON_AND_ORGANIZATION ( #81, #50 ) ;
#94 = EDGE_LOOP ( 'NONE', ( #274 ) ) ;
#95 = ADVANCED_FACE ( 'NONE', ( #161 ), #239, .F. ) ;
#96 = COORDINATED_UNIVERSAL_TIME_OFFSET ( 1, 0, .AHEAD. ) ;
#97 = PERSON_AND_ORGANIZATION ( #81, #50 ) ;
#98 = EDGE_LOOP ( 'NONE', ( #200 ) ) ;
#99 = EDGE_LOOP ( 'NONE', ( #14 ) ) ;
#100 = LOCAL_TIME ( 15, 47, 19.00000000000000000, #84 ) ;
#101 = CC_DESIGN_APPROVAL ( #52, ( #31 ) ) ;
#102 = ORIENTED_EDGE ( 'NONE', *, *, #123, .F. ) ;
#103 = DIRECTION ( 'NONE',  ( 0.0000000000000000000, 1.000000000000000000, 0.0000000000000000000 ) ) ;
#104 = AXIS2_PLACEMENT_3D ( 'NONE', #106, #23, #108 ) ;
#105 = ADVANCED_FACE ( 'NONE', ( #126, #21 ), #67, .T. ) ;
#106 = CARTESIAN_POINT ( 'NONE',  ( 1.316288464743861212E-13, -4.616918432785520292E-15, 37.69999999999999574 ) ) ;
#107 = EDGE_LOOP ( 'NONE', ( #192 ) ) ;
#108 = DIRECTION ( 'NONE',  ( 0.0000000000000000000, 1.000000000000000000, 0.0000000000000000000 ) ) ;
#109 = FACE_OUTER_BOUND ( 'NONE', #203, .T. ) ;
#110 = FACE_BOUND ( 'NONE', #86, .T. ) ;
#111 = CARTESIAN_POINT ( 'NONE',  ( 2.444036937190193349E-14, 0.3534999999999992037, 7.000000000000000000 ) ) ;
#112 = APPROVAL_STATUS ( 'not_yet_approved' ) ;
#113 = DIRECTION ( 'NONE',  ( 1.000000000000000000, 0.0000000000000000000, 0.0000000000000000000 ) ) ;
#114 = ORIENTED_EDGE ( 'NONE', *, *, #123, .T. ) ;
#115 = ADVANCED_FACE ( 'NONE', ( #59, #143 ), #255, .T. ) ;
#116 = APPROVAL_DATE_TIME ( #140, #181 ) ;
#117 = AXIS2_PLACEMENT_3D ( 'NONE', #2, #184, #85 ) ;
#118 = AXIS2_PLACEMENT_3D ( 'NONE', #257, #232, #57 ) ;
#119 = CARTESIAN_POINT ( 'NONE',  ( 4.775334616937604919E-14, -1.674961910415908528E-15, 13.67710193324379375 ) ) ;
#120 = CC_DESIGN_PERSON_AND_ORGANIZATION_ASSIGNMENT ( #275, #277, ( #219 ) ) ;
#121 = PERSON_AND_ORGANIZATION_ROLE ( 'classification_officer' ) ;
#122 = CARTESIAN_POINT ( 'NONE',  ( -1.264641172494766508E-31, 4.435764117470065283E-33, -3.622076275835953741E-17 ) ) ;
#123 = EDGE_CURVE ( 'NONE', #149, #149, #155, .T. ) ;
#124 = CARTESIAN_POINT ( 'NONE',  ( 1.326762908760390423E-13, -4.653657836759941152E-15, 38.00000000000000000 ) ) ;
#125 = AXIS2_PLACEMENT_3D ( 'NONE', #26, #89, #1 ) ;
#126 = FACE_BOUND ( 'NONE', #30, .T. ) ;
#127 = CARTESIAN_POINT ( 'NONE',  ( 2.565294811559829736E-14, -8.997842963946609330E-16, 7.347296355333847728 ) ) ;
#128 = FACE_OUTER_BOUND ( 'NONE', #98, .T. ) ;
#129 = CARTESIAN_POINT ( 'NONE',  ( 2.565294811559829736E-14, 0.3838844939755803876, 7.347296355333847728 ) ) ;
#130 = COORDINATED_UNIVERSAL_TIME_OFFSET ( 1, 0, .AHEAD. ) ;
#131 = DIRECTION ( 'NONE',  ( 0.0000000000000000000, 0.0000000000000000000, 1.000000000000000000 ) ) ;
#132 = VERTEX_POINT ( 'NONE', #147 ) ;
#133 = EDGE_LOOP ( 'NONE', ( #16 ) ) ;
#134 = CALENDAR_DATE ( 2021, 26, 11 ) ;
#135 = DIRECTION ( 'NONE',  ( 3.491481338843133355E-15, -1.224646799147352961E-16, 1.000000000000000000 ) ) ;
#136 = LOCAL_TIME ( 15, 47, 19.00000000000000000, #254 ) ;
#137 = EDGE_LOOP ( 'NONE', ( #173 ) ) ;
#138 = EDGE_CURVE ( 'NONE', #132, #132, #182, .T. ) ;
#139 = CARTESIAN_POINT ( 'NONE',  ( 3.491481338843132862E-16, -1.224646799147352653E-17, 0.09999999999999997780 ) ) ;
#140 = DATE_AND_TIME ( #18, #136 ) ;
#141 = CARTESIAN_POINT ( 'NONE',  ( 1.326762908760390423E-13, 8.998558695971099120E-33, 38.00000000000000000 ) ) ;
#142 = CARTESIAN_POINT ( 'NONE',  ( -6.323205862473832541E-32, 2.217882058735032641E-33, -1.811038137917976871E-17 ) ) ;
#143 = FACE_OUTER_BOUND ( 'NONE', #261, .T. ) ;
#144 = ORIENTED_EDGE ( 'NONE', *, *, #20, .T. ) ;
#145 = PERSON_AND_ORGANIZATION_ROLE ( 'creator' ) ;
#146 = DIRECTION ( 'NONE',  ( -3.491481338843133355E-15, 1.224646799147352961E-16, -1.000000000000000000 ) ) ;
#147 = CARTESIAN_POINT ( 'NONE',  ( 1.326762908760390423E-13, 1.199999999999998845, 38.00000000000000000 ) ) ;
#148 = VERTEX_POINT ( 'NONE', #271 ) ;
#149 = VERTEX_POINT ( 'NONE', #129 ) ;
#150 = CALENDAR_DATE ( 2021, 26, 11 ) ;
#151 = SECURITY_CLASSIFICATION_LEVEL ( 'unclassified' ) ;
#152 = APPLICATION_CONTEXT ( 'configuration controlled 3d designs of mechanical parts and assemblies' ) ;
#153 = FACE_OUTER_BOUND ( 'NONE', #34, .T. ) ;
#154 = VERTEX_POINT ( 'NONE', #260 ) ;
#155 = CIRCLE ( 'NONE', #44, 0.3838844939755813312 ) ;
#156 = EDGE_LOOP ( 'NONE', ( #272 ) ) ;
#157 = FACE_OUTER_BOUND ( 'NONE', #133, .T. ) ;
#158 = PERSON_AND_ORGANIZATION ( #81, #50 ) ;
#159 = DIRECTION ( 'NONE',  ( 3.491481338843133355E-15, -1.224646799147352961E-16, 1.000000000000000000 ) ) ;
#160 = CONICAL_SURFACE ( 'NONE', #78, 1.499999999999997113, 0.1745329251994260644 ) ;
#161 = FACE_OUTER_BOUND ( 'NONE', #99, .T. ) ;
#162 = FACE_OUTER_BOUND ( 'NONE', #68, .T. ) ;
#163 = DIRECTION ( 'NONE',  ( 3.491481338843133355E-15, -1.224646799147352961E-16, 1.000000000000000000 ) ) ;
#164 = CARTESIAN_POINT ( 'NONE',  ( 3.491481338843132862E-16, -1.224646799147352653E-17, 0.09999999999999997780 ) ) ;
#165 = AXIS2_PLACEMENT_3D ( 'NONE', #122, #42, #91 ) ;
#166 = CC_DESIGN_SECURITY_CLASSIFICATION ( #51, ( #219 ) ) ;
#167 = CARTESIAN_POINT ( 'NONE',  ( 4.775334616937604919E-14, -1.674961910415908528E-15, 13.67710193324379375 ) ) ;
#168 = PERSON_AND_ORGANIZATION ( #81, #50 ) ;
#169 = EDGE_CURVE ( 'NONE', #246, #246, #236, .T. ) ;
#170 =( LENGTH_UNIT ( ) NAMED_UNIT ( * ) SI_UNIT ( .MILLI., .METRE. ) );
#171 = AXIS2_PLACEMENT_3D ( 'NONE', #139, #163, #209 ) ;
#172 = ORIENTED_EDGE ( 'NONE', *, *, #189, .F. ) ;
#173 = ORIENTED_EDGE ( 'NONE', *, *, #54, .T. ) ;
#174 = APPROVAL ( #188, 'UNSPECIFIED' ) ;
#175 = CARTESIAN_POINT ( 'NONE',  ( 3.491481338843134341E-16, 0.3534999999999990927, 0.1000000000000000194 ) ) ;
#176 = MANIFOLD_SOLID_BREP ( 'Corps-Déplacer/Copier1[2]', #229 ) ;
#177 = MANIFOLD_SOLID_BREP ( 'Corps-Déplacer/Copier1[1]', #49 ) ;
#178 = CYLINDRICAL_SURFACE ( 'NONE', #199, 0.3534999999999998699 ) ;
#179 = DIRECTION ( 'NONE',  ( 4.275831445896957731E-31, 1.000000000000000000, 1.224646799147352961E-16 ) ) ;
#180 = PLANE ( 'NONE',  #117 ) ;
#181 = APPROVAL ( #195, 'UNSPECIFIED' ) ;
#182 = CIRCLE ( 'NONE', #118, 1.200000000000003286 ) ;
#183 = FACE_OUTER_BOUND ( 'NONE', #233, .T. ) ;
#184 = DIRECTION ( 'NONE',  ( 3.491481338843133355E-15, -1.224646799147352961E-16, 1.000000000000000000 ) ) ;
#185 = DIRECTION ( 'NONE',  ( -3.491481338843133355E-15, 1.224646799147352961E-16, -1.000000000000000000 ) ) ;
#186 = CARTESIAN_POINT ( 'NONE',  ( 1.396592535537253342E-14, 2.650825415854822361E-33, 4.000000000000000000 ) ) ;
#187 = AXIS2_PLACEMENT_3D ( 'NONE', #119, #283, #210 ) ;
#188 = APPROVAL_STATUS ( 'not_yet_approved' ) ;
#189 = EDGE_CURVE ( 'NONE', #148, #148, #191, .T. ) ;
#190 = DATE_TIME_ROLE ( 'creation_date' ) ;
#191 = CIRCLE ( 'NONE', #247, 0.3534999999999996478 ) ;
#192 = ORIENTED_EDGE ( 'NONE', *, *, #6, .T. ) ;
#193 = APPROVAL_ROLE ( '' ) ;
#194 = EDGE_LOOP ( 'NONE', ( #245 ) ) ;
#195 = APPROVAL_STATUS ( 'not_yet_approved' ) ;
#196 = DIRECTION ( 'NONE',  ( -4.275831445896957731E-31, -1.000000000000000000, -1.224646799147352961E-16 ) ) ;
#197 = EDGE_LOOP ( 'NONE', ( #144 ) ) ;
#198 = CIRCLE ( 'NONE', #241, 0.3534999999999990927 ) ;
#199 = AXIS2_PLACEMENT_3D ( 'NONE', #226, #79, #179 ) ;
#200 = ORIENTED_EDGE ( 'NONE', *, *, #65, .T. ) ;
#201 = PRODUCT_RELATED_PRODUCT_CATEGORY ( 'detail', '', ( #227 ) ) ;
#202 = FACE_OUTER_BOUND ( 'NONE', #94, .T. ) ;
#203 = EDGE_LOOP ( 'NONE', ( #172 ) ) ;
#204 = AXIS2_PLACEMENT_3D ( 'NONE', #41, #205, #280 ) ;
#205 = DIRECTION ( 'NONE',  ( -3.491481338843133355E-15, 1.224646799147352961E-16, -1.000000000000000000 ) ) ;
#206 = DIRECTION ( 'NONE',  ( 0.0000000000000000000, 1.000000000000000000, 0.0000000000000000000 ) ) ;
#207 = DIRECTION ( 'NONE',  ( 4.275831445896957731E-31, 1.000000000000000000, 1.224646799147352961E-16 ) ) ;
#208 = CIRCLE ( 'NONE', #243, 0.3534999999999996478 ) ;
#209 = DIRECTION ( 'NONE',  ( -4.086131423735305572E-31, -1.000000000000000000, -1.150143747332574779E-16 ) ) ;
#210 = DIRECTION ( 'NONE',  ( 0.0000000000000000000, 1.000000000000000000, 0.0000000000000000000 ) ) ;
#211 = PLANE ( 'NONE',  #276 ) ;
#212 = DATE_AND_TIME ( #48, #214 ) ;
#213 = ADVANCED_FACE ( 'NONE', ( #110, #267 ), #160, .T. ) ;
#214 = LOCAL_TIME ( 15, 47, 19.00000000000000000, #240 ) ;
#215 = CALENDAR_DATE ( 2021, 26, 11 ) ;
#216 = MECHANICAL_CONTEXT ( 'NONE', #152, 'mechanical' ) ;
#217 = CARTESIAN_POINT ( 'NONE',  ( 0.0000000000000000000, 0.2957649730810373301, 0.0000000000000000000 ) ) ;
#218 = ORIENTED_EDGE ( 'NONE', *, *, #169, .F. ) ;
#219 = PRODUCT_DEFINITION_FORMATION_WITH_SPECIFIED_SOURCE ( 'ANY', '', #227, .NOT_KNOWN. ) ;
#220 = ORIENTED_EDGE ( 'NONE', *, *, #169, .T. ) ;
#221 = CC_DESIGN_PERSON_AND_ORGANIZATION_ASSIGNMENT ( #168, #145, ( #31 ) ) ;
#222 = DATE_AND_TIME ( #134, #100 ) ;
#223 = VERTEX_POINT ( 'NONE', #76 ) ;
#224 = AXIS2_PLACEMENT_3D ( 'NONE', #124, #185, #62 ) ;
#225 = DATE_TIME_ROLE ( 'classification_date' ) ;
#226 = CARTESIAN_POINT ( 'NONE',  ( 0.0000000000000000000, 0.0000000000000000000, 0.0000000000000000000 ) ) ;
#227 = PRODUCT ( '200009', '200009', '', ( #216 ) ) ;
#228 = CONICAL_SURFACE ( 'NONE', #224, 1.200000000000003286, 0.7853981633974453924 ) ;
#229 = CLOSED_SHELL ( 'NONE', ( #83, #105, #115, #28 ) ) ;
#230 = CC_DESIGN_DATE_AND_TIME_ASSIGNMENT ( #212, #190, ( #31 ) ) ;
#231 = DIRECTION ( 'NONE',  ( -3.491481338843133355E-15, 1.224646799147352961E-16, -1.000000000000000000 ) ) ;
#232 = DIRECTION ( 'NONE',  ( -3.491481338843133355E-15, 1.224646799147352961E-16, -1.000000000000000000 ) ) ;
#233 = EDGE_LOOP ( 'NONE', ( #253 ) ) ;
#234 = ADVANCED_FACE ( 'NONE', ( #128 ), #211, .F. ) ;
#235 = DIRECTION ( 'NONE',  ( -3.491481338843133355E-15, 1.224646799147352961E-16, -1.000000000000000000 ) ) ;
#236 = CIRCLE ( 'NONE', #165, 0.2957649730810373301 ) ;
#237 = DIRECTION ( 'NONE',  ( 4.086131423735305572E-31, 1.000000000000000000, 1.150143747332574779E-16 ) ) ;
#238 = CC_DESIGN_PERSON_AND_ORGANIZATION_ASSIGNMENT ( #97, #80, ( #219 ) ) ;
#239 = PLANE ( 'NONE',  #36 ) ;
#240 = COORDINATED_UNIVERSAL_TIME_OFFSET ( 1, 0, .AHEAD. ) ;
#241 = AXIS2_PLACEMENT_3D ( 'NONE', #164, #235, #237 ) ;
#242 = CC_DESIGN_DATE_AND_TIME_ASSIGNMENT ( #222, #225, ( #51 ) ) ;
#243 = AXIS2_PLACEMENT_3D ( 'NONE', #58, #87, #103 ) ;
#244 =( NAMED_UNIT ( * ) SI_UNIT ( $, .STERADIAN. ) SOLID_ANGLE_UNIT ( ) );
#245 = ORIENTED_EDGE ( 'NONE', *, *, #138, .T. ) ;
#246 = VERTEX_POINT ( 'NONE', #217 ) ;
#247 = AXIS2_PLACEMENT_3D ( 'NONE', #27, #146, #3 ) ;
#248 = DIRECTION ( 'NONE',  ( 4.275831445896957731E-31, 1.000000000000000000, 1.224646799147353207E-16 ) ) ;
#249 = ADVANCED_FACE ( 'NONE', ( #202, #153 ), #178, .T. ) ;
#250 = AXIS2_PLACEMENT_3D ( 'NONE', #142, #159, #43 ) ;
#251 = APPLICATION_CONTEXT ( 'configuration controlled 3d designs of mechanical parts and assemblies' ) ;
#252 = CARTESIAN_POINT ( 'NONE',  ( 0.0000000000000000000, 0.0000000000000000000, 0.0000000000000000000 ) ) ;
#253 = ORIENTED_EDGE ( 'NONE', *, *, #77, .F. ) ;
#254 = COORDINATED_UNIVERSAL_TIME_OFFSET ( 1, 0, .AHEAD. ) ;
#255 = CYLINDRICAL_SURFACE ( 'NONE', #204, 0.3534999999999993703 ) ;
#256 = APPROVAL_PERSON_ORGANIZATION ( #35, #181, #12 ) ;
#257 = CARTESIAN_POINT ( 'NONE',  ( 1.326762908760390423E-13, -4.653657836759941152E-15, 38.00000000000000000 ) ) ;
#258 = FACE_OUTER_BOUND ( 'NONE', #72, .T. ) ;
#259 = PRODUCT_DEFINITION_SHAPE ( 'NONE', 'NONE',  #31 ) ;
#260 = CARTESIAN_POINT ( 'NONE',  ( 1.396592535537253342E-14, 0.3534999999999991482, 4.000000000000000000 ) ) ;
#261 = EDGE_LOOP ( 'NONE', ( #38 ) ) ;
#262 = CIRCLE ( 'NONE', #187, 1.499999999999997113 ) ;
#263 = LOCAL_TIME ( 15, 47, 19.00000000000000000, #130 ) ;
#264 = ORIENTED_EDGE ( 'NONE', *, *, #20, .F. ) ;
#265 = CC_DESIGN_APPROVAL ( #181, ( #51 ) ) ;
#266 = FACE_OUTER_BOUND ( 'NONE', #8, .T. ) ;
#267 = FACE_OUTER_BOUND ( 'NONE', #137, .T. ) ;
#268 = DATE_AND_TIME ( #150, #61 ) ;
#269 =( NAMED_UNIT ( * ) PLANE_ANGLE_UNIT ( ) SI_UNIT ( $, .RADIAN. ) );
#270 = APPROVAL_PERSON_ORGANIZATION ( #70, #52, #193 ) ;
#271 = CARTESIAN_POINT ( 'NONE',  ( 1.396592535537253342E-14, 0.3534999999999991482, 4.000000000000000000 ) ) ;
#272 = ORIENTED_EDGE ( 'NONE', *, *, #6, .F. ) ;
#273 = APPLICATION_PROTOCOL_DEFINITION ( 'international standard', 'config_control_design', 1994, #251 ) ;
#274 = ORIENTED_EDGE ( 'NONE', *, *, #65, .F. ) ;
#275 = PERSON_AND_ORGANIZATION ( #81, #50 ) ;
#276 = AXIS2_PLACEMENT_3D ( 'NONE', #186, #135, #196 ) ;
#277 = PERSON_AND_ORGANIZATION_ROLE ( 'creator' ) ;
#278 = CC_DESIGN_PERSON_AND_ORGANIZATION_ASSIGNMENT ( #64, #29, ( #227 ) ) ;
#279 = DIRECTION ( 'NONE',  ( 0.0000000000000000000, 1.000000000000000000, 0.0000000000000000000 ) ) ;
#280 = DIRECTION ( 'NONE',  ( 4.275831445896957731E-31, 1.000000000000000000, 1.224646799147352961E-16 ) ) ;
#281 = ADVANCED_FACE ( 'NONE', ( #157, #15 ), #55, .T. ) ;
#282 = AXIS2_PLACEMENT_3D ( 'NONE', #252, #39, #248 ) ;
#283 = DIRECTION ( 'NONE',  ( -3.491481338843133355E-15, 1.224646799147352961E-16, -1.000000000000000000 ) ) ;
ENDSEC;
END-ISO-10303-21;
