ISO-10303-21;
HEADER;
FILE_DESCRIPTION (( 'STEP AP203' ),
    '1' );
FILE_NAME ('200008.step',
    '2021-11-26T14:47:18',
    ( '' ),
    ( '' ),
    'SwSTEP 2.0',
    'SolidWorks 2019',
    '' );
FILE_SCHEMA (( 'CONFIG_CONTROL_DESIGN' ));
ENDSEC;

DATA;
#1 = CC_DESIGN_DATE_AND_TIME_ASSIGNMENT ( #275, #252, ( #162 ) ) ;
#2 = CARTESIAN_POINT ( 'NONE',  ( 2.565294811559829736E-14, -8.997842963946609330E-16, 7.347296355333847728 ) ) ;
#3 = CARTESIAN_POINT ( 'NONE',  ( 1.396592535537253342E-14, 0.3284999999999992926, 4.000000000000000000 ) ) ;
#4 = DIRECTION ( 'NONE',  ( 0.0000000000000000000, 1.000000000000000000, 0.0000000000000000000 ) ) ;
#5 = ORIENTED_EDGE ( 'NONE', *, *, #114, .F. ) ;
#6 = CIRCLE ( 'NONE', #19, 0.2707649730810376409 ) ;
#7 = PERSON ( 'UNSPECIFIED', 'UNSPECIFIED', 'UNSPECIFIED', ('UNSPECIFIED'), ('UNSPECIFIED'), ('UNSPECIFIED') ) ;
#8 = ADVANCED_FACE ( 'NONE', ( #250, #144 ), #187, .T. ) ;
#9 = ORIENTED_EDGE ( 'NONE', *, *, #101, .T. ) ;
#10 = ADVANCED_FACE ( 'NONE', ( #142, #18 ), #40, .T. ) ;
#11 = ORIENTED_EDGE ( 'NONE', *, *, #282, .F. ) ;
#12 =( GEOMETRIC_REPRESENTATION_CONTEXT ( 3 ) GLOBAL_UNCERTAINTY_ASSIGNED_CONTEXT ( ( #13 ) ) GLOBAL_UNIT_ASSIGNED_CONTEXT ( ( #176, #26, #227 ) ) REPRESENTATION_CONTEXT ( 'NONE', 'WORKASPACE' ) );
#13 = UNCERTAINTY_MEASURE_WITH_UNIT (LENGTH_MEASURE( 1.000000000000000082E-05 ), #176, 'distance_accuracy_value', 'NONE');
#14 = FACE_OUTER_BOUND ( 'NONE', #123, .T. ) ;
#15 = EDGE_LOOP ( 'NONE', ( #140 ) ) ;
#16 = AXIS2_PLACEMENT_3D ( 'NONE', #221, #267, #97 ) ;
#17 = ORGANIZATION ( 'UNSPECIFIED', 'UNSPECIFIED', '' ) ;
#18 = FACE_BOUND ( 'NONE', #90, .T. ) ;
#19 = AXIS2_PLACEMENT_3D ( 'NONE', #248, #283, #27 ) ;
#20 = PERSON_AND_ORGANIZATION_ROLE ( 'creator' ) ;
#21 = FACE_BOUND ( 'NONE', #15, .T. ) ;
#22 = ADVANCED_FACE ( 'NONE', ( #45 ), #131, .F. ) ;
#23 = DIRECTION ( 'NONE',  ( 0.0000000000000000000, 1.000000000000000000, 0.0000000000000000000 ) ) ;
#24 = CC_DESIGN_APPROVAL ( #235, ( #162 ) ) ;
#25 = EDGE_LOOP ( 'NONE', ( #173 ) ) ;
#26 =( NAMED_UNIT ( * ) PLANE_ANGLE_UNIT ( ) SI_UNIT ( $, .RADIAN. ) );
#27 = DIRECTION ( 'NONE',  ( 4.275831445896956855E-31, 1.000000000000000000, 1.224646799147352714E-16 ) ) ;
#28 = VERTEX_POINT ( 'NONE', #216 ) ;
#29 = FACE_OUTER_BOUND ( 'NONE', #255, .T. ) ;
#30 = VERTEX_POINT ( 'NONE', #223 ) ;
#31 = DIRECTION ( 'NONE',  ( 0.0000000000000000000, 1.000000000000000000, 0.0000000000000000000 ) ) ;
#32 = APPROVAL_PERSON_ORGANIZATION ( #233, #78, #280 ) ;
#33 = PRODUCT ( '200008', '200008', '', ( #64 ) ) ;
#34 = AXIS2_PLACEMENT_3D ( 'NONE', #54, #165, #111 ) ;
#35 = ADVANCED_FACE ( 'NONE', ( #92 ), #109, .T. ) ;
#36 = CC_DESIGN_PERSON_AND_ORGANIZATION_ASSIGNMENT ( #194, #146, ( #33 ) ) ;
#37 = EDGE_LOOP ( 'NONE', ( #5 ) ) ;
#38 = DIRECTION ( 'NONE',  ( -3.491481338843133355E-15, 1.224646799147352961E-16, -1.000000000000000000 ) ) ;
#39 = APPROVAL_ROLE ( '' ) ;
#40 = CONICAL_SURFACE ( 'NONE', #79, 1.200000000000003286, 0.7853981633974453924 ) ;
#41 = DIRECTION ( 'NONE',  ( 0.0000000000000000000, 0.0000000000000000000, 1.000000000000000000 ) ) ;
#42 = DATE_AND_TIME ( #89, #190 ) ;
#43 = DIRECTION ( 'NONE',  ( 3.491481338843133355E-15, -1.224646799147352961E-16, 1.000000000000000000 ) ) ;
#44 = CIRCLE ( 'NONE', #136, 0.3285000000000002363 ) ;
#45 = FACE_OUTER_BOUND ( 'NONE', #68, .T. ) ;
#46 = VERTEX_POINT ( 'NONE', #95 ) ;
#47 = AXIS2_PLACEMENT_3D ( 'NONE', #258, #41, #62 ) ;
#48 = ADVANCED_FACE ( 'NONE', ( #278, #67 ), #198, .T. ) ;
#49 = APPROVAL_PERSON_ORGANIZATION ( #87, #98, #39 ) ;
#50 = CLOSED_SHELL ( 'NONE', ( #147, #8, #77, #61, #48, #10, #22 ) ) ;
#51 = AXIS2_PLACEMENT_3D ( 'NONE', #259, #200, #23 ) ;
#52 = ORIENTED_EDGE ( 'NONE', *, *, #205, .F. ) ;
#53 = LOCAL_TIME ( 15, 47, 18.00000000000000000, #86 ) ;
#54 = CARTESIAN_POINT ( 'NONE',  ( 4.824837553538895823E-14, -1.692325203234552669E-15, 13.81888397873424168 ) ) ;
#55 = CIRCLE ( 'NONE', #16, 0.3284999999999997922 ) ;
#56 = ORIENTED_EDGE ( 'NONE', *, *, #182, .T. ) ;
#57 = COORDINATED_UNIVERSAL_TIME_OFFSET ( 1, 0, .AHEAD. ) ;
#58 = ORIENTED_EDGE ( 'NONE', *, *, #205, .T. ) ;
#59 = APPROVAL_DATE_TIME ( #42, #98 ) ;
#60 = DIRECTION ( 'NONE',  ( -3.491481338843133355E-15, 1.224646799147352961E-16, -1.000000000000000000 ) ) ;
#61 = ADVANCED_FACE ( 'NONE', ( #21, #14 ), #204, .T. ) ;
#62 = DIRECTION ( 'NONE',  ( 1.000000000000000000, 0.0000000000000000000, 0.0000000000000000000 ) ) ;
#63 = AXIS2_PLACEMENT_3D ( 'NONE', #163, #128, #215 ) ;
#64 = MECHANICAL_CONTEXT ( 'NONE', #191, 'mechanical' ) ;
#65 = FACE_BOUND ( 'NONE', #226, .T. ) ;
#66 = APPROVAL_STATUS ( 'not_yet_approved' ) ;
#67 = FACE_OUTER_BOUND ( 'NONE', #25, .T. ) ;
#68 = EDGE_LOOP ( 'NONE', ( #52 ) ) ;
#69 = CIRCLE ( 'NONE', #262, 1.200000000000003286 ) ;
#70 = DIRECTION ( 'NONE',  ( -3.491481338843133355E-15, 1.224646799147352961E-16, -1.000000000000000000 ) ) ;
#71 = PERSON_AND_ORGANIZATION ( #7, #17 ) ;
#72 = SECURITY_CLASSIFICATION_LEVEL ( 'unclassified' ) ;
#73 = MANIFOLD_SOLID_BREP ( 'Corps-Déplacer/Copier1[1]', #50 ) ;
#74 = CARTESIAN_POINT ( 'NONE',  ( 2.444036937190193033E-14, 0.3284999999999993481, 6.999999999999999112 ) ) ;
#75 = DIRECTION ( 'NONE',  ( -3.491481338843133355E-15, 1.224646799147352961E-16, -1.000000000000000000 ) ) ;
#76 = DIRECTION ( 'NONE',  ( -3.491481338843133355E-15, 1.224646799147352961E-16, -1.000000000000000000 ) ) ;
#77 = ADVANCED_FACE ( 'NONE', ( #174, #151 ), #99, .F. ) ;
#78 = APPROVAL ( #236, 'UNSPECIFIED' ) ;
#79 = AXIS2_PLACEMENT_3D ( 'NONE', #281, #240, #149 ) ;
#80 = EDGE_LOOP ( 'NONE', ( #184 ) ) ;
#81 = CARTESIAN_POINT ( 'NONE',  ( 2.444036937190193349E-14, -8.673617379884035472E-16, 7.000000000000000000 ) ) ;
#82 = DIRECTION ( 'NONE',  ( -3.491481338843133355E-15, 1.224646799147352961E-16, -1.000000000000000000 ) ) ;
#83 = AXIS2_PLACEMENT_3D ( 'NONE', #264, #153, #157 ) ;
#84 = DATE_AND_TIME ( #274, #118 ) ;
#85 = EDGE_CURVE ( 'NONE', #46, #46, #6, .T. ) ;
#86 = COORDINATED_UNIVERSAL_TIME_OFFSET ( 1, 0, .AHEAD. ) ;
#87 = PERSON_AND_ORGANIZATION ( #7, #17 ) ;
#88 = DIRECTION ( 'NONE',  ( -4.397100329651233603E-31, -1.000000000000000000, -1.237673712882998799E-16 ) ) ;
#89 = CALENDAR_DATE ( 2021, 26, 11 ) ;
#90 = EDGE_LOOP ( 'NONE', ( #58 ) ) ;
#91 = CC_DESIGN_PERSON_AND_ORGANIZATION_ASSIGNMENT ( #231, #265, ( #210 ) ) ;
#92 = FACE_OUTER_BOUND ( 'NONE', #168, .T. ) ;
#93 = CARTESIAN_POINT ( 'NONE',  ( 1.316288464743861212E-13, 1.499999999999998668, 37.69999999999999574 ) ) ;
#94 = CARTESIAN_POINT ( 'NONE',  ( 1.396592535537253342E-14, 2.463355443022091870E-33, 4.000000000000000000 ) ) ;
#95 = CARTESIAN_POINT ( 'NONE',  ( 4.731839565957904486E-32, 0.2707649730810376409, 1.355252715606880543E-17 ) ) ;
#96 = DIRECTION ( 'NONE',  ( 0.0000000000000000000, 1.000000000000000000, 0.0000000000000000000 ) ) ;
#97 = DIRECTION ( 'NONE',  ( 0.0000000000000000000, 1.000000000000000000, 0.0000000000000000000 ) ) ;
#98 = APPROVAL ( #66, 'UNSPECIFIED' ) ;
#99 = TOROIDAL_SURFACE ( 'NONE', #228, 2.328500000000000458, 2.000000000000000444 ) ;
#100 = EDGE_LOOP ( 'NONE', ( #120 ) ) ;
#101 = EDGE_CURVE ( 'NONE', #28, #28, #55, .T. ) ;
#102 = CC_DESIGN_APPROVAL ( #78, ( #210 ) ) ;
#103 = PERSON_AND_ORGANIZATION ( #7, #17 ) ;
#104 = COORDINATED_UNIVERSAL_TIME_OFFSET ( 1, 0, .AHEAD. ) ;
#105 = CIRCLE ( 'NONE', #108, 1.500000000000003331 ) ;
#106 = DIRECTION ( 'NONE',  ( 4.275831445896957731E-31, 1.000000000000000000, 1.224646799147352961E-16 ) ) ;
#107 = CLOSED_SHELL ( 'NONE', ( #225, #254, #242, #35 ) ) ;
#108 = AXIS2_PLACEMENT_3D ( 'NONE', #201, #177, #133 ) ;
#109 = PLANE ( 'NONE',  #158 ) ;
#110 = DATE_TIME_ROLE ( 'creation_date' ) ;
#111 = DIRECTION ( 'NONE',  ( 0.0000000000000000000, -1.000000000000000000, 0.0000000000000000000 ) ) ;
#112 = PERSON_AND_ORGANIZATION_ROLE ( 'classification_officer' ) ;
#113 = DIRECTION ( 'NONE',  ( -4.275831445896957731E-31, -1.000000000000000000, -1.224646799147352961E-16 ) ) ;
#114 = EDGE_CURVE ( 'NONE', #155, #155, #105, .T. ) ;
#115 = DIRECTION ( 'NONE',  ( -3.491481338843133355E-15, 1.224646799147352961E-16, -1.000000000000000000 ) ) ;
#116 = VERTEX_POINT ( 'NONE', #179 ) ;
#117 = CARTESIAN_POINT ( 'NONE',  ( 1.326762908760390423E-13, 1.199999999999998845, 38.00000000000000000 ) ) ;
#118 = LOCAL_TIME ( 15, 47, 18.00000000000000000, #159 ) ;
#119 = DIRECTION ( 'NONE',  ( 3.491481338843133355E-15, -1.224646799147352961E-16, 1.000000000000000000 ) ) ;
#120 = ORIENTED_EDGE ( 'NONE', *, *, #101, .F. ) ;
#121 = PLANE ( 'NONE',  #83 ) ;
#122 = ORIENTED_EDGE ( 'NONE', *, *, #137, .T. ) ;
#123 = EDGE_LOOP ( 'NONE', ( #186 ) ) ;
#124 = EDGE_LOOP ( 'NONE', ( #56 ) ) ;
#125 = EDGE_CURVE ( 'NONE', #220, #220, #164, .T. ) ;
#126 = CARTESIAN_POINT ( 'NONE',  ( 1.326762908760390423E-13, 8.998558695971099120E-33, 38.00000000000000000 ) ) ;
#127 = CALENDAR_DATE ( 2021, 26, 11 ) ;
#128 = DIRECTION ( 'NONE',  ( -3.491481338843133355E-15, 1.224646799147352961E-16, -1.000000000000000000 ) ) ;
#129 = VERTEX_POINT ( 'NONE', #117 ) ;
#130 = PERSON_AND_ORGANIZATION ( #7, #17 ) ;
#131 = PLANE ( 'NONE',  #217 ) ;
#132 = EDGE_CURVE ( 'NONE', #30, #30, #213, .T. ) ;
#133 = DIRECTION ( 'NONE',  ( 0.0000000000000000000, 1.000000000000000000, 0.0000000000000000000 ) ) ;
#134 = CARTESIAN_POINT ( 'NONE',  ( 3.491481338843132862E-16, -1.224646799147352653E-17, 0.09999999999999997780 ) ) ;
#135 = EDGE_LOOP ( 'NONE', ( #9 ) ) ;
#136 = AXIS2_PLACEMENT_3D ( 'NONE', #156, #70, #245 ) ;
#137 = EDGE_CURVE ( 'NONE', #116, #116, #211, .T. ) ;
#138 = DESIGN_CONTEXT ( 'detailed design', #260, 'design' ) ;
#139 = AXIS2_PLACEMENT_3D ( 'NONE', #277, #60, #106 ) ;
#140 = ORIENTED_EDGE ( 'NONE', *, *, #137, .F. ) ;
#141 = APPROVAL_STATUS ( 'not_yet_approved' ) ;
#142 = FACE_OUTER_BOUND ( 'NONE', #37, .T. ) ;
#143 = PERSON_AND_ORGANIZATION_ROLE ( 'creator' ) ;
#144 = FACE_OUTER_BOUND ( 'NONE', #124, .T. ) ;
#145 = LOCAL_TIME ( 15, 47, 18.00000000000000000, #57 ) ;
#146 = PERSON_AND_ORGANIZATION_ROLE ( 'design_owner' ) ;
#147 = ADVANCED_FACE ( 'NONE', ( #154 ), #244, .F. ) ;
#148 = CALENDAR_DATE ( 2021, 26, 11 ) ;
#149 = DIRECTION ( 'NONE',  ( 0.0000000000000000000, 1.000000000000000000, 0.0000000000000000000 ) ) ;
#150 = CIRCLE ( 'NONE', #51, 0.3284999999999997922 ) ;
#151 = FACE_OUTER_BOUND ( 'NONE', #195, .T. ) ;
#152 = DIRECTION ( 'NONE',  ( 4.398531200561434985E-31, 1.000000000000000000, 1.224646799147352961E-16 ) ) ;
#153 = DIRECTION ( 'NONE',  ( 3.491481338843133355E-15, -1.224646799147352961E-16, 1.000000000000000000 ) ) ;
#154 = FACE_OUTER_BOUND ( 'NONE', #135, .T. ) ;
#155 = VERTEX_POINT ( 'NONE', #93 ) ;
#156 = CARTESIAN_POINT ( 'NONE',  ( 2.444036937190193033E-14, -8.572527594031470232E-16, 6.999999999999999112 ) ) ;
#157 = DIRECTION ( 'NONE',  ( -4.275831445896957731E-31, -1.000000000000000000, -1.224646799147352961E-16 ) ) ;
#158 = AXIS2_PLACEMENT_3D ( 'NONE', #261, #43, #113 ) ;
#159 = COORDINATED_UNIVERSAL_TIME_OFFSET ( 1, 0, .AHEAD. ) ;
#160 = MANIFOLD_SOLID_BREP ( 'Corps-Déplacer/Copier1[2]', #107 ) ;
#161 = ADVANCED_BREP_SHAPE_REPRESENTATION ( '200008', ( #73, #160, #47 ), #12 ) ;
#162 = SECURITY_CLASSIFICATION ( '', '', #72 ) ;
#163 = CARTESIAN_POINT ( 'NONE',  ( 0.0000000000000000000, 0.0000000000000000000, 0.0000000000000000000 ) ) ;
#164 = CIRCLE ( 'NONE', #251, 1.499999999999997113 ) ;
#165 = DIRECTION ( 'NONE',  ( 3.491481338843133355E-15, -1.224646799147352961E-16, 1.000000000000000000 ) ) ;
#166 = CALENDAR_DATE ( 2021, 26, 11 ) ;
#167 = SHAPE_DEFINITION_REPRESENTATION ( #180, #161 ) ;
#168 = EDGE_LOOP ( 'NONE', ( #11 ) ) ;
#169 = APPROVAL_DATE_TIME ( #189, #78 ) ;
#170 = COORDINATED_UNIVERSAL_TIME_OFFSET ( 1, 0, .AHEAD. ) ;
#171 = CC_DESIGN_DATE_AND_TIME_ASSIGNMENT ( #214, #110, ( #197 ) ) ;
#172 = APPLICATION_PROTOCOL_DEFINITION ( 'international standard', 'config_control_design', 1994, #191 ) ;
#173 = ORIENTED_EDGE ( 'NONE', *, *, #114, .T. ) ;
#174 = FACE_OUTER_BOUND ( 'NONE', #196, .T. ) ;
#175 = AXIS2_PLACEMENT_3D ( 'NONE', #192, #276, #88 ) ;
#176 =( LENGTH_UNIT ( ) NAMED_UNIT ( * ) SI_UNIT ( .MILLI., .METRE. ) );
#177 = DIRECTION ( 'NONE',  ( -3.491481338843133355E-15, 1.224646799147352961E-16, -1.000000000000000000 ) ) ;
#178 = FACE_OUTER_BOUND ( 'NONE', #181, .T. ) ;
#179 = CARTESIAN_POINT ( 'NONE',  ( 2.565294811559829736E-14, 0.3588844939755802543, 7.347296355333847728 ) ) ;
#180 = PRODUCT_DEFINITION_SHAPE ( 'NONE', 'NONE',  #197 ) ;
#181 = EDGE_LOOP ( 'NONE', ( #272 ) ) ;
#182 = EDGE_CURVE ( 'NONE', #266, #266, #44, .T. ) ;
#183 = CC_DESIGN_APPROVAL ( #98, ( #197 ) ) ;
#184 = ORIENTED_EDGE ( 'NONE', *, *, #132, .F. ) ;
#185 = PRODUCT_RELATED_PRODUCT_CATEGORY ( 'detail', '', ( #33 ) ) ;
#186 = ORIENTED_EDGE ( 'NONE', *, *, #125, .T. ) ;
#187 = CYLINDRICAL_SURFACE ( 'NONE', #268, 0.3285000000000000142 ) ;
#188 = DIRECTION ( 'NONE',  ( -3.491481338843133355E-15, 1.224646799147352961E-16, -1.000000000000000000 ) ) ;
#189 = DATE_AND_TIME ( #166, #238 ) ;
#190 = LOCAL_TIME ( 15, 47, 18.00000000000000000, #170 ) ;
#191 = APPLICATION_CONTEXT ( 'configuration controlled 3d designs of mechanical parts and assemblies' ) ;
#192 = CARTESIAN_POINT ( 'NONE',  ( 3.491481338843132862E-16, -1.224646799147352653E-17, 0.09999999999999997780 ) ) ;
#193 = AXIS2_PLACEMENT_3D ( 'NONE', #134, #76, #199 ) ;
#194 = PERSON_AND_ORGANIZATION ( #7, #17 ) ;
#195 = EDGE_LOOP ( 'NONE', ( #122 ) ) ;
#196 = EDGE_LOOP ( 'NONE', ( #271 ) ) ;
#197 = PRODUCT_DEFINITION ( 'UNKNOWN', '', #210, #138 ) ;
#198 = CYLINDRICAL_SURFACE ( 'NONE', #63, 1.500000000000000222 ) ;
#199 = DIRECTION ( 'NONE',  ( 4.397100329651233603E-31, 1.000000000000000000, 1.237673712882998799E-16 ) ) ;
#200 = DIRECTION ( 'NONE',  ( -3.491481338843133355E-15, 1.224646799147352961E-16, -1.000000000000000000 ) ) ;
#201 = CARTESIAN_POINT ( 'NONE',  ( 1.316288464743861212E-13, -4.616918432785520292E-15, 37.69999999999999574 ) ) ;
#202 = VERTEX_POINT ( 'NONE', #3 ) ;
#203 = CARTESIAN_POINT ( 'NONE',  ( 1.326762908760390423E-13, -4.653657836759941152E-15, 38.00000000000000000 ) ) ;
#204 = CONICAL_SURFACE ( 'NONE', #34, 1.499999999999997113, 0.1745329251994260644 ) ;
#205 = EDGE_CURVE ( 'NONE', #129, #129, #69, .T. ) ;
#206 = CC_DESIGN_PERSON_AND_ORGANIZATION_ASSIGNMENT ( #130, #112, ( #162 ) ) ;
#207 = ORIENTED_EDGE ( 'NONE', *, *, #125, .F. ) ;
#208 = ORIENTED_EDGE ( 'NONE', *, *, #85, .F. ) ;
#209 = CYLINDRICAL_SURFACE ( 'NONE', #139, 0.3284999999999995146 ) ;
#210 = PRODUCT_DEFINITION_FORMATION_WITH_SPECIFIED_SOURCE ( 'ANY', '', #33, .NOT_KNOWN. ) ;
#211 = CIRCLE ( 'NONE', #218, 0.3588844939755811425 ) ;
#212 = DIRECTION ( 'NONE',  ( 4.275831445896957731E-31, 1.000000000000000000, 1.224646799147352961E-16 ) ) ;
#213 = CIRCLE ( 'NONE', #193, 0.3284999999999992371 ) ;
#214 = DATE_AND_TIME ( #148, #145 ) ;
#215 = DIRECTION ( 'NONE',  ( 4.275831445896957731E-31, 1.000000000000000000, 1.224646799147353207E-16 ) ) ;
#216 = CARTESIAN_POINT ( 'NONE',  ( 1.396592535537253342E-14, 0.3284999999999992926, 4.000000000000000000 ) ) ;
#217 = AXIS2_PLACEMENT_3D ( 'NONE', #126, #82, #212 ) ;
#218 = AXIS2_PLACEMENT_3D ( 'NONE', #2, #75, #31 ) ;
#219 = CARTESIAN_POINT ( 'NONE',  ( 4.824837553538895823E-14, 1.499999999999995559, 13.81888397873424168 ) ) ;
#220 = VERTEX_POINT ( 'NONE', #219 ) ;
#221 = CARTESIAN_POINT ( 'NONE',  ( 1.396592535537253342E-14, -4.898587196589411843E-16, 4.000000000000000000 ) ) ;
#222 = ORIENTED_EDGE ( 'NONE', *, *, #132, .T. ) ;
#223 = CARTESIAN_POINT ( 'NONE',  ( 3.491481338843134341E-16, 0.3284999999999992371, 0.1000000000000000194 ) ) ;
#224 = DIRECTION ( 'NONE',  ( -3.491481338843133355E-15, 1.224646799147352961E-16, -1.000000000000000000 ) ) ;
#225 = ADVANCED_FACE ( 'NONE', ( #178 ), #121, .F. ) ;
#226 = EDGE_LOOP ( 'NONE', ( #208 ) ) ;
#227 =( NAMED_UNIT ( * ) SI_UNIT ( $, .STERADIAN. ) SOLID_ANGLE_UNIT ( ) );
#228 = AXIS2_PLACEMENT_3D ( 'NONE', #81, #38, #152 ) ;
#229 = CARTESIAN_POINT ( 'NONE',  ( 0.0000000000000000000, 0.0000000000000000000, 0.0000000000000000000 ) ) ;
#230 = APPROVAL_ROLE ( '' ) ;
#231 = PERSON_AND_ORGANIZATION ( #7, #17 ) ;
#232 = DIRECTION ( 'NONE',  ( 4.275831445896957731E-31, 1.000000000000000000, 1.224646799147352961E-16 ) ) ;
#233 = PERSON_AND_ORGANIZATION ( #7, #17 ) ;
#234 = FACE_OUTER_BOUND ( 'NONE', #241, .T. ) ;
#235 = APPROVAL ( #141, 'UNSPECIFIED' ) ;
#236 = APPROVAL_STATUS ( 'not_yet_approved' ) ;
#237 = CC_DESIGN_SECURITY_CLASSIFICATION ( #162, ( #210 ) ) ;
#238 = LOCAL_TIME ( 15, 47, 18.00000000000000000, #104 ) ;
#239 = APPLICATION_PROTOCOL_DEFINITION ( 'international standard', 'config_control_design', 1994, #260 ) ;
#240 = DIRECTION ( 'NONE',  ( -3.491481338843133355E-15, 1.224646799147352961E-16, -1.000000000000000000 ) ) ;
#241 = EDGE_LOOP ( 'NONE', ( #222 ) ) ;
#242 = ADVANCED_FACE ( 'NONE', ( #243, #29 ), #209, .T. ) ;
#243 = FACE_OUTER_BOUND ( 'NONE', #80, .T. ) ;
#244 = PLANE ( 'NONE',  #269 ) ;
#245 = DIRECTION ( 'NONE',  ( 0.0000000000000000000, 1.000000000000000000, 0.0000000000000000000 ) ) ;
#246 = APPROVAL_PERSON_ORGANIZATION ( #103, #235, #230 ) ;
#247 = CC_DESIGN_PERSON_AND_ORGANIZATION_ASSIGNMENT ( #256, #20, ( #197 ) ) ;
#248 = CARTESIAN_POINT ( 'NONE',  ( -6.845614297515534190E-32, 2.401118271600881181E-33, -1.960661860442238348E-17 ) ) ;
#249 = APPROVAL_DATE_TIME ( #84, #235 ) ;
#250 = FACE_OUTER_BOUND ( 'NONE', #100, .T. ) ;
#251 = AXIS2_PLACEMENT_3D ( 'NONE', #263, #115, #96 ) ;
#252 = DATE_TIME_ROLE ( 'classification_date' ) ;
#253 = EDGE_LOOP ( 'NONE', ( #207 ) ) ;
#254 = ADVANCED_FACE ( 'NONE', ( #65, #234 ), #257, .T. ) ;
#255 = EDGE_LOOP ( 'NONE', ( #273 ) ) ;
#256 = PERSON_AND_ORGANIZATION ( #7, #17 ) ;
#257 = CONICAL_SURFACE ( 'NONE', #175, 0.3284999999999992371, 0.5235987755982918213 ) ;
#258 = CARTESIAN_POINT ( 'NONE',  ( 0.0000000000000000000, 0.0000000000000000000, 0.0000000000000000000 ) ) ;
#259 = CARTESIAN_POINT ( 'NONE',  ( 1.396592535537253342E-14, -4.898587196589411843E-16, 4.000000000000000000 ) ) ;
#260 = APPLICATION_CONTEXT ( 'configuration controlled 3d designs of mechanical parts and assemblies' ) ;
#261 = CARTESIAN_POINT ( 'NONE',  ( 1.396592535537253342E-14, 2.463355443022091870E-33, 4.000000000000000000 ) ) ;
#262 = AXIS2_PLACEMENT_3D ( 'NONE', #203, #224, #4 ) ;
#263 = CARTESIAN_POINT ( 'NONE',  ( 4.824837553538895823E-14, -1.692325203234552669E-15, 13.81888397873424168 ) ) ;
#264 = CARTESIAN_POINT ( 'NONE',  ( -3.422807148757767095E-32, 1.200559135800440591E-33, -9.803309302211191742E-18 ) ) ;
#265 = PERSON_AND_ORGANIZATION_ROLE ( 'design_supplier' ) ;
#266 = VERTEX_POINT ( 'NONE', #74 ) ;
#267 = DIRECTION ( 'NONE',  ( -3.491481338843133355E-15, 1.224646799147352961E-16, -1.000000000000000000 ) ) ;
#268 = AXIS2_PLACEMENT_3D ( 'NONE', #229, #188, #232 ) ;
#269 = AXIS2_PLACEMENT_3D ( 'NONE', #94, #119, #270 ) ;
#270 = DIRECTION ( 'NONE',  ( -4.275831445896957731E-31, -1.000000000000000000, -1.224646799147352961E-16 ) ) ;
#271 = ORIENTED_EDGE ( 'NONE', *, *, #182, .F. ) ;
#272 = ORIENTED_EDGE ( 'NONE', *, *, #85, .T. ) ;
#273 = ORIENTED_EDGE ( 'NONE', *, *, #282, .T. ) ;
#274 = CALENDAR_DATE ( 2021, 26, 11 ) ;
#275 = DATE_AND_TIME ( #127, #53 ) ;
#276 = DIRECTION ( 'NONE',  ( 3.491481338843133355E-15, -1.224646799147352961E-16, 1.000000000000000000 ) ) ;
#277 = CARTESIAN_POINT ( 'NONE',  ( 0.0000000000000000000, 0.0000000000000000000, 0.0000000000000000000 ) ) ;
#278 = FACE_OUTER_BOUND ( 'NONE', #253, .T. ) ;
#279 = CC_DESIGN_PERSON_AND_ORGANIZATION_ASSIGNMENT ( #71, #143, ( #210 ) ) ;
#280 = APPROVAL_ROLE ( '' ) ;
#281 = CARTESIAN_POINT ( 'NONE',  ( 1.326762908760390423E-13, -4.653657836759941152E-15, 38.00000000000000000 ) ) ;
#282 = EDGE_CURVE ( 'NONE', #202, #202, #150, .T. ) ;
#283 = DIRECTION ( 'NONE',  ( -3.491481338843133355E-15, 1.224646799147352961E-16, -1.000000000000000000 ) ) ;
ENDSEC;
END-ISO-10303-21;
