ISO-10303-21;
HEADER;
FILE_DESCRIPTION (( 'STEP AP203' ),
    '1' );
FILE_NAME ('200007.step',
    '2021-11-26T14:47:18',
    ( '' ),
    ( '' ),
    'SwSTEP 2.0',
    'SolidWorks 2019',
    '' );
FILE_SCHEMA (( 'CONFIG_CONTROL_DESIGN' ));
ENDSEC;

DATA;
#1 = DIRECTION ( 'NONE',  ( -3.491481338843133355E-15, 1.224646799147352961E-16, -1.000000000000000000 ) ) ;
#2 = DIRECTION ( 'NONE',  ( 0.0000000000000000000, 1.000000000000000000, 0.0000000000000000000 ) ) ;
#3 = DIRECTION ( 'NONE',  ( 0.0000000000000000000, 0.0000000000000000000, 1.000000000000000000 ) ) ;
#4 = PRODUCT ( '200007', '200007', '', ( #216 ) ) ;
#5 = CC_DESIGN_APPROVAL ( #271, ( #249 ) ) ;
#6 = CC_DESIGN_PERSON_AND_ORGANIZATION_ASSIGNMENT ( #14, #253, ( #249 ) ) ;
#7 = FACE_OUTER_BOUND ( 'NONE', #193, .T. ) ;
#8 = FACE_OUTER_BOUND ( 'NONE', #210, .T. ) ;
#9 = CARTESIAN_POINT ( 'NONE',  ( 2.094888803305880013E-14, -8.673617379884035472E-16, 6.000000000000000000 ) ) ;
#10 = CIRCLE ( 'NONE', #275, 0.2584999999999997300 ) ;
#11 = FACE_OUTER_BOUND ( 'NONE', #281, .T. ) ;
#12 = COORDINATED_UNIVERSAL_TIME_OFFSET ( 1, 0, .AHEAD. ) ;
#13 = PERSON ( 'UNSPECIFIED', 'UNSPECIFIED', 'UNSPECIFIED', ('UNSPECIFIED'), ('UNSPECIFIED'), ('UNSPECIFIED') ) ;
#14 = PERSON_AND_ORGANIZATION ( #13, #39 ) ;
#15 = DATE_TIME_ROLE ( 'classification_date' ) ;
#16 = AXIS2_PLACEMENT_3D ( 'NONE', #233, #110, #215 ) ;
#17 = CARTESIAN_POINT ( 'NONE',  ( 1.396592535537253342E-14, 0.2584999999999992304, 4.000000000000000000 ) ) ;
#18 = ORIENTED_EDGE ( 'NONE', *, *, #158, .T. ) ;
#19 = EDGE_LOOP ( 'NONE', ( #169 ) ) ;
#20 = APPLICATION_PROTOCOL_DEFINITION ( 'international standard', 'config_control_design', 1994, #227 ) ;
#21 = LOCAL_TIME ( 15, 47, 18.00000000000000000, #160 ) ;
#22 = DIRECTION ( 'NONE',  ( 0.0000000000000000000, 1.000000000000000000, 0.0000000000000000000 ) ) ;
#23 = PERSON_AND_ORGANIZATION_ROLE ( 'design_owner' ) ;
#24 = CARTESIAN_POINT ( 'NONE',  ( 1.326762908760390423E-13, -4.653657836759941152E-15, 38.00000000000000000 ) ) ;
#25 =( NAMED_UNIT ( * ) PLANE_ANGLE_UNIT ( ) SI_UNIT ( $, .RADIAN. ) );
#26 = DIRECTION ( 'NONE',  ( 4.275831445896957731E-31, 1.000000000000000000, 1.224646799147352961E-16 ) ) ;
#27 = AXIS2_PLACEMENT_3D ( 'NONE', #64, #1, #145 ) ;
#28 = CARTESIAN_POINT ( 'NONE',  ( 3.491481338843133355E-16, -1.224646799147352807E-17, 0.09999999999999999167 ) ) ;
#29 = DIRECTION ( 'NONE',  ( 3.491481338843133355E-15, -1.224646799147352961E-16, 1.000000000000000000 ) ) ;
#30 = PRODUCT_RELATED_PRODUCT_CATEGORY ( 'detail', '', ( #4 ) ) ;
#31 = CARTESIAN_POINT ( 'NONE',  ( 1.396592535537253342E-14, 1.938439519090440955E-33, 4.000000000000000000 ) ) ;
#32 = CARTESIAN_POINT ( 'NONE',  ( 1.396592535537253342E-14, 1.938439519090440955E-33, 4.000000000000000000 ) ) ;
#33 = CIRCLE ( 'NONE', #101, 1.200000000000003286 ) ;
#34 = AXIS2_PLACEMENT_3D ( 'NONE', #117, #116, #269 ) ;
#35 = CONICAL_SURFACE ( 'NONE', #173, 0.2584999999999992859, 0.5235987755982922653 ) ;
#36 = DATE_AND_TIME ( #57, #131 ) ;
#37 = EDGE_LOOP ( 'NONE', ( #264 ) ) ;
#38 = DATE_AND_TIME ( #234, #212 ) ;
#39 = ORGANIZATION ( 'UNSPECIFIED', 'UNSPECIFIED', '' ) ;
#40 = PRODUCT_DEFINITION ( 'UNKNOWN', '', #249, #222 ) ;
#41 = ORIENTED_EDGE ( 'NONE', *, *, #120, .T. ) ;
#42 = ORIENTED_EDGE ( 'NONE', *, *, #232, .F. ) ;
#43 =( NAMED_UNIT ( * ) SI_UNIT ( $, .STERADIAN. ) SOLID_ANGLE_UNIT ( ) );
#44 = EDGE_LOOP ( 'NONE', ( #85 ) ) ;
#45 = AXIS2_PLACEMENT_3D ( 'NONE', #157, #121, #105 ) ;
#46 = DIRECTION ( 'NONE',  ( -3.491481338843133355E-15, 1.224646799147352961E-16, -1.000000000000000000 ) ) ;
#47 = FACE_OUTER_BOUND ( 'NONE', #19, .T. ) ;
#48 = DIRECTION ( 'NONE',  ( -3.491481338843133355E-15, 1.224646799147352961E-16, -1.000000000000000000 ) ) ;
#49 = ADVANCED_FACE ( 'NONE', ( #112 ), #69, .F. ) ;
#50 = SECURITY_CLASSIFICATION ( '', '', #80 ) ;
#51 = DIRECTION ( 'NONE',  ( 3.725202987209364159E-31, 1.000000000000000000, 1.048551424067221938E-16 ) ) ;
#52 = DIRECTION ( 'NONE',  ( 0.0000000000000000000, 1.000000000000000000, 0.0000000000000000000 ) ) ;
#53 = CARTESIAN_POINT ( 'NONE',  ( -1.804805098326137288E-31, 6.330404124348753502E-33, -5.169167247859732472E-17 ) ) ;
#54 =( GEOMETRIC_REPRESENTATION_CONTEXT ( 3 ) GLOBAL_UNCERTAINTY_ASSIGNED_CONTEXT ( ( #76 ) ) GLOBAL_UNIT_ASSIGNED_CONTEXT ( ( #60, #25, #43 ) ) REPRESENTATION_CONTEXT ( 'NONE', 'WORKASPACE' ) );
#55 = PERSON_AND_ORGANIZATION ( #13, #39 ) ;
#56 = VERTEX_POINT ( 'NONE', #229 ) ;
#57 = CALENDAR_DATE ( 2021, 26, 11 ) ;
#58 = AXIS2_PLACEMENT_3D ( 'NONE', #156, #115, #195 ) ;
#59 = DATE_TIME_ROLE ( 'creation_date' ) ;
#60 =( LENGTH_UNIT ( ) NAMED_UNIT ( * ) SI_UNIT ( .MILLI., .METRE. ) );
#61 = COORDINATED_UNIVERSAL_TIME_OFFSET ( 1, 0, .AHEAD. ) ;
#62 = DIRECTION ( 'NONE',  ( -3.491481338843133355E-15, 1.224646799147352961E-16, -1.000000000000000000 ) ) ;
#63 = AXIS2_PLACEMENT_3D ( 'NONE', #53, #174, #219 ) ;
#64 = CARTESIAN_POINT ( 'NONE',  ( 2.216146677675516085E-14, -7.773196164799255877E-16, 6.347296355333846840 ) ) ;
#65 = CARTESIAN_POINT ( 'NONE',  ( 0.0000000000000000000, 0.0000000000000000000, 0.0000000000000000000 ) ) ;
#66 = PRODUCT_DEFINITION_SHAPE ( 'NONE', 'NONE',  #40 ) ;
#67 = DIRECTION ( 'NONE',  ( 3.491481338843133355E-15, -1.224646799147352961E-16, 1.000000000000000000 ) ) ;
#68 = EDGE_CURVE ( 'NONE', #103, #103, #33, .T. ) ;
#69 = PLANE ( 'NONE',  #148 ) ;
#70 = CIRCLE ( 'NONE', #27, 0.2888844939755813579 ) ;
#71 = CARTESIAN_POINT ( 'NONE',  ( -9.024025491630686440E-32, 3.165202062174376751E-33, -2.584583623929866236E-17 ) ) ;
#72 = CC_DESIGN_DATE_AND_TIME_ASSIGNMENT ( #36, #59, ( #40 ) ) ;
#73 = FACE_OUTER_BOUND ( 'NONE', #143, .T. ) ;
#74 = DIRECTION ( 'NONE',  ( -3.491481338843133355E-15, 1.224646799147352961E-16, -1.000000000000000000 ) ) ;
#75 = DIRECTION ( 'NONE',  ( 3.491481338843133355E-15, -1.224646799147352961E-16, 1.000000000000000000 ) ) ;
#76 = UNCERTAINTY_MEASURE_WITH_UNIT (LENGTH_MEASURE( 1.000000000000000082E-05 ), #60, 'distance_accuracy_value', 'NONE');
#77 = APPROVAL ( #86, 'UNSPECIFIED' ) ;
#78 = PERSON_AND_ORGANIZATION ( #13, #39 ) ;
#79 = CONICAL_SURFACE ( 'NONE', #34, 1.499999999999996891, 0.1745329251994260089 ) ;
#80 = SECURITY_CLASSIFICATION_LEVEL ( 'unclassified' ) ;
#81 = CC_DESIGN_PERSON_AND_ORGANIZATION_ASSIGNMENT ( #141, #140, ( #50 ) ) ;
#82 = ORIENTED_EDGE ( 'NONE', *, *, #164, .F. ) ;
#83 = CONICAL_SURFACE ( 'NONE', #225, 1.200000000000003286, 0.7853981633974453924 ) ;
#84 = EDGE_LOOP ( 'NONE', ( #87 ) ) ;
#85 = ORIENTED_EDGE ( 'NONE', *, *, #144, .T. ) ;
#86 = APPROVAL_STATUS ( 'not_yet_approved' ) ;
#87 = ORIENTED_EDGE ( 'NONE', *, *, #120, .F. ) ;
#88 = DIRECTION ( 'NONE',  ( 4.400548103890427124E-31, 1.000000000000000000, 1.224646799147352961E-16 ) ) ;
#89 = FACE_OUTER_BOUND ( 'NONE', #107, .T. ) ;
#90 = ADVANCED_FACE ( 'NONE', ( #126, #167 ), #170, .T. ) ;
#91 = CC_DESIGN_APPROVAL ( #251, ( #50 ) ) ;
#92 = DIRECTION ( 'NONE',  ( 0.0000000000000000000, 1.000000000000000000, 0.0000000000000000000 ) ) ;
#93 = CALENDAR_DATE ( 2021, 26, 11 ) ;
#94 = FACE_OUTER_BOUND ( 'NONE', #124, .T. ) ;
#95 = APPROVAL_DATE_TIME ( #224, #77 ) ;
#96 = CIRCLE ( 'NONE', #123, 1.500000000000003331 ) ;
#97 = PERSON_AND_ORGANIZATION_ROLE ( 'creator' ) ;
#98 = EDGE_CURVE ( 'NONE', #138, #138, #70, .T. ) ;
#99 = APPROVAL_STATUS ( 'not_yet_approved' ) ;
#100 = VERTEX_POINT ( 'NONE', #185 ) ;
#101 = AXIS2_PLACEMENT_3D ( 'NONE', #24, #62, #22 ) ;
#102 = CIRCLE ( 'NONE', #246, 0.2584999999999992859 ) ;
#103 = VERTEX_POINT ( 'NONE', #248 ) ;
#104 = EDGE_LOOP ( 'NONE', ( #172 ) ) ;
#105 = DIRECTION ( 'NONE',  ( 4.275831445896957731E-31, 1.000000000000000000, 1.224646799147352961E-16 ) ) ;
#106 = ORIENTED_EDGE ( 'NONE', *, *, #209, .F. ) ;
#107 = EDGE_LOOP ( 'NONE', ( #192 ) ) ;
#108 = DIRECTION ( 'NONE',  ( 1.000000000000000000, 0.0000000000000000000, 0.0000000000000000000 ) ) ;
#109 = AXIS2_PLACEMENT_3D ( 'NONE', #151, #243, #26 ) ;
#110 = DIRECTION ( 'NONE',  ( -3.491481338843133355E-15, 1.224646799147352961E-16, -1.000000000000000000 ) ) ;
#111 = APPLICATION_PROTOCOL_DEFINITION ( 'international standard', 'config_control_design', 1994, #199 ) ;
#112 = FACE_OUTER_BOUND ( 'NONE', #242, .T. ) ;
#113 = ADVANCED_FACE ( 'NONE', ( #260, #238 ), #83, .T. ) ;
#114 = CARTESIAN_POINT ( 'NONE',  ( 1.396592535537253342E-14, -4.898587196589411843E-16, 4.000000000000000000 ) ) ;
#115 = DIRECTION ( 'NONE',  ( -3.491481338843133355E-15, 1.224646799147352961E-16, -1.000000000000000000 ) ) ;
#116 = DIRECTION ( 'NONE',  ( 3.491481338843133355E-15, -1.224646799147352961E-16, 1.000000000000000000 ) ) ;
#117 = CARTESIAN_POINT ( 'NONE',  ( 4.614297642138196133E-14, -1.618477743212020957E-15, 13.21587370610749623 ) ) ;
#118 = APPROVAL_PERSON_ORGANIZATION ( #187, #251, #165 ) ;
#119 = CARTESIAN_POINT ( 'NONE',  ( 1.396592535537253342E-14, -4.898587196589411843E-16, 4.000000000000000000 ) ) ;
#120 = EDGE_CURVE ( 'NONE', #181, #181, #102, .T. ) ;
#121 = DIRECTION ( 'NONE',  ( -3.491481338843133355E-15, 1.224646799147352961E-16, -1.000000000000000000 ) ) ;
#122 = COORDINATED_UNIVERSAL_TIME_OFFSET ( 1, 0, .AHEAD. ) ;
#123 = AXIS2_PLACEMENT_3D ( 'NONE', #247, #197, #52 ) ;
#124 = EDGE_LOOP ( 'NONE', ( #257 ) ) ;
#125 = EDGE_CURVE ( 'NONE', #226, #226, #263, .T. ) ;
#126 = FACE_OUTER_BOUND ( 'NONE', #84, .T. ) ;
#127 = DIRECTION ( 'NONE',  ( -4.275831445896957731E-31, -1.000000000000000000, -1.224646799147352961E-16 ) ) ;
#128 = DIRECTION ( 'NONE',  ( 0.0000000000000000000, 1.000000000000000000, 0.0000000000000000000 ) ) ;
#129 = ADVANCED_FACE ( 'NONE', ( #47 ), #132, .T. ) ;
#130 = DIRECTION ( 'NONE',  ( -3.491481338843133355E-15, 1.224646799147352961E-16, -1.000000000000000000 ) ) ;
#131 = LOCAL_TIME ( 15, 47, 18.00000000000000000, #122 ) ;
#132 = PLANE ( 'NONE',  #230 ) ;
#133 = PLANE ( 'NONE',  #163 ) ;
#134 = DIRECTION ( 'NONE',  ( 0.0000000000000000000, 1.000000000000000000, 0.0000000000000000000 ) ) ;
#135 = CLOSED_SHELL ( 'NONE', ( #235, #239, #149, #166, #203, #113, #276 ) ) ;
#136 = AXIS2_PLACEMENT_3D ( 'NONE', #119, #130, #176 ) ;
#137 = ADVANCED_BREP_SHAPE_REPRESENTATION ( '200007', ( #259, #262, #159 ), #54 ) ;
#138 = VERTEX_POINT ( 'NONE', #278 ) ;
#139 = APPROVAL_PERSON_ORGANIZATION ( #194, #77, #261 ) ;
#140 = PERSON_AND_ORGANIZATION_ROLE ( 'classification_officer' ) ;
#141 = PERSON_AND_ORGANIZATION ( #13, #39 ) ;
#142 = FACE_OUTER_BOUND ( 'NONE', #147, .T. ) ;
#143 = EDGE_LOOP ( 'NONE', ( #240 ) ) ;
#144 = EDGE_CURVE ( 'NONE', #205, #205, #282, .T. ) ;
#145 = DIRECTION ( 'NONE',  ( 0.0000000000000000000, 1.000000000000000000, 0.0000000000000000000 ) ) ;
#146 = EDGE_LOOP ( 'NONE', ( #255 ) ) ;
#147 = EDGE_LOOP ( 'NONE', ( #283 ) ) ;
#148 = AXIS2_PLACEMENT_3D ( 'NONE', #71, #67, #127 ) ;
#149 = ADVANCED_FACE ( 'NONE', ( #266, #220 ), #201, .F. ) ;
#150 = CC_DESIGN_SECURITY_CLASSIFICATION ( #50, ( #249 ) ) ;
#151 = CARTESIAN_POINT ( 'NONE',  ( 0.0000000000000000000, 0.0000000000000000000, 0.0000000000000000000 ) ) ;
#152 = CC_DESIGN_PERSON_AND_ORGANIZATION_ASSIGNMENT ( #55, #162, ( #249 ) ) ;
#153 = DIRECTION ( 'NONE',  ( -3.725202987209364159E-31, -1.000000000000000000, -1.048551424067221938E-16 ) ) ;
#154 = CIRCLE ( 'NONE', #268, 1.499999999999996891 ) ;
#155 = CYLINDRICAL_SURFACE ( 'NONE', #58, 1.500000000000000000 ) ;
#156 = CARTESIAN_POINT ( 'NONE',  ( 0.0000000000000000000, 0.0000000000000000000, 0.0000000000000000000 ) ) ;
#157 = CARTESIAN_POINT ( 'NONE',  ( 1.326762908760390423E-13, 8.998558695971099120E-33, 38.00000000000000000 ) ) ;
#158 = EDGE_CURVE ( 'NONE', #188, #188, #180, .T. ) ;
#159 = AXIS2_PLACEMENT_3D ( 'NONE', #65, #3, #108 ) ;
#160 = COORDINATED_UNIVERSAL_TIME_OFFSET ( 1, 0, .AHEAD. ) ;
#161 = APPROVAL_STATUS ( 'not_yet_approved' ) ;
#162 = PERSON_AND_ORGANIZATION_ROLE ( 'creator' ) ;
#163 = AXIS2_PLACEMENT_3D ( 'NONE', #32, #221, #202 ) ;
#164 = EDGE_CURVE ( 'NONE', #56, #56, #154, .T. ) ;
#165 = APPROVAL_ROLE ( '' ) ;
#166 = ADVANCED_FACE ( 'NONE', ( #198, #73 ), #79, .T. ) ;
#167 = FACE_OUTER_BOUND ( 'NONE', #44, .T. ) ;
#168 = LOCAL_TIME ( 15, 47, 18.00000000000000000, #182 ) ;
#169 = ORIENTED_EDGE ( 'NONE', *, *, #144, .F. ) ;
#170 = CYLINDRICAL_SURFACE ( 'NONE', #16, 0.2584999999999995079 ) ;
#171 = CC_DESIGN_PERSON_AND_ORGANIZATION_ASSIGNMENT ( #214, #23, ( #4 ) ) ;
#172 = ORIENTED_EDGE ( 'NONE', *, *, #68, .T. ) ;
#173 = AXIS2_PLACEMENT_3D ( 'NONE', #28, #75, #153 ) ;
#174 = DIRECTION ( 'NONE',  ( -3.491481338843133355E-15, 1.224646799147352961E-16, -1.000000000000000000 ) ) ;
#175 = CARTESIAN_POINT ( 'NONE',  ( 4.614297642138196133E-14, -1.618477743212020957E-15, 13.21587370610749623 ) ) ;
#176 = DIRECTION ( 'NONE',  ( 0.0000000000000000000, 1.000000000000000000, 0.0000000000000000000 ) ) ;
#177 = AXIS2_PLACEMENT_3D ( 'NONE', #9, #74, #88 ) ;
#178 = CYLINDRICAL_SURFACE ( 'NONE', #109, 0.2584999999999998410 ) ;
#179 = ADVANCED_FACE ( 'NONE', ( #217, #200 ), #35, .T. ) ;
#180 = CIRCLE ( 'NONE', #63, 0.2007649730810375788 ) ;
#181 = VERTEX_POINT ( 'NONE', #252 ) ;
#182 = COORDINATED_UNIVERSAL_TIME_OFFSET ( 1, 0, .AHEAD. ) ;
#183 = CC_DESIGN_PERSON_AND_ORGANIZATION_ASSIGNMENT ( #280, #97, ( #40 ) ) ;
#184 = CALENDAR_DATE ( 2021, 26, 11 ) ;
#185 = CARTESIAN_POINT ( 'NONE',  ( 1.396592535537253342E-14, 0.2584999999999992304, 4.000000000000000000 ) ) ;
#186 = APPROVAL_PERSON_ORGANIZATION ( #78, #271, #206 ) ;
#187 = PERSON_AND_ORGANIZATION ( #13, #39 ) ;
#188 = VERTEX_POINT ( 'NONE', #204 ) ;
#189 = ORIENTED_EDGE ( 'NONE', *, *, #209, .T. ) ;
#190 = ORIENTED_EDGE ( 'NONE', *, *, #125, .F. ) ;
#191 = PLANE ( 'NONE',  #45 ) ;
#192 = ORIENTED_EDGE ( 'NONE', *, *, #232, .T. ) ;
#193 = EDGE_LOOP ( 'NONE', ( #106 ) ) ;
#194 = PERSON_AND_ORGANIZATION ( #13, #39 ) ;
#195 = DIRECTION ( 'NONE',  ( 4.275831445896957731E-31, 1.000000000000000000, 1.224646799147353207E-16 ) ) ;
#196 = AXIS2_PLACEMENT_3D ( 'NONE', #244, #48, #128 ) ;
#197 = DIRECTION ( 'NONE',  ( -3.491481338843133355E-15, 1.224646799147352961E-16, -1.000000000000000000 ) ) ;
#198 = FACE_BOUND ( 'NONE', #258, .T. ) ;
#199 = APPLICATION_CONTEXT ( 'configuration controlled 3d designs of mechanical parts and assemblies' ) ;
#200 = FACE_OUTER_BOUND ( 'NONE', #279, .T. ) ;
#201 = TOROIDAL_SURFACE ( 'NONE', #177, 2.258500000000000174, 2.000000000000000000 ) ;
#202 = DIRECTION ( 'NONE',  ( -4.275831445896957731E-31, -1.000000000000000000, -1.224646799147352961E-16 ) ) ;
#203 = ADVANCED_FACE ( 'NONE', ( #8, #89 ), #155, .T. ) ;
#204 = CARTESIAN_POINT ( 'NONE',  ( -9.463679131915805687E-32, 0.2007649730810375788, -2.710505431213761085E-17 ) ) ;
#205 = VERTEX_POINT ( 'NONE', #17 ) ;
#206 = APPROVAL_ROLE ( '' ) ;
#207 = ORIENTED_EDGE ( 'NONE', *, *, #98, .F. ) ;
#208 = APPROVAL_DATE_TIME ( #38, #251 ) ;
#209 = EDGE_CURVE ( 'NONE', #100, #100, #10, .T. ) ;
#210 = EDGE_LOOP ( 'NONE', ( #82 ) ) ;
#211 = CARTESIAN_POINT ( 'NONE',  ( 1.326762908760390423E-13, -4.653657836759941152E-15, 38.00000000000000000 ) ) ;
#212 = LOCAL_TIME ( 15, 47, 18.00000000000000000, #61 ) ;
#213 = EDGE_LOOP ( 'NONE', ( #190 ) ) ;
#214 = PERSON_AND_ORGANIZATION ( #13, #39 ) ;
#215 = DIRECTION ( 'NONE',  ( 4.275831445896957731E-31, 1.000000000000000000, 1.224646799147352714E-16 ) ) ;
#216 = MECHANICAL_CONTEXT ( 'NONE', #227, 'mechanical' ) ;
#217 = FACE_BOUND ( 'NONE', #37, .T. ) ;
#218 = CC_DESIGN_DATE_AND_TIME_ASSIGNMENT ( #231, #15, ( #50 ) ) ;
#219 = DIRECTION ( 'NONE',  ( 4.275831445896957731E-31, 1.000000000000000000, 1.224646799147352961E-16 ) ) ;
#220 = FACE_OUTER_BOUND ( 'NONE', #146, .T. ) ;
#221 = DIRECTION ( 'NONE',  ( 3.491481338843133355E-15, -1.224646799147352961E-16, 1.000000000000000000 ) ) ;
#222 = DESIGN_CONTEXT ( 'detailed design', #199, 'design' ) ;
#223 = DIRECTION ( 'NONE',  ( -4.275831445896957731E-31, -1.000000000000000000, -1.224646799147352961E-16 ) ) ;
#224 = DATE_AND_TIME ( #93, #241 ) ;
#225 = AXIS2_PLACEMENT_3D ( 'NONE', #211, #46, #2 ) ;
#226 = VERTEX_POINT ( 'NONE', #236 ) ;
#227 = APPLICATION_CONTEXT ( 'configuration controlled 3d designs of mechanical parts and assemblies' ) ;
#228 = APPROVAL_DATE_TIME ( #254, #271 ) ;
#229 = CARTESIAN_POINT ( 'NONE',  ( 4.614297642138196133E-14, 1.499999999999995559, 13.21587370610749623 ) ) ;
#230 = AXIS2_PLACEMENT_3D ( 'NONE', #31, #29, #223 ) ;
#231 = DATE_AND_TIME ( #184, #21 ) ;
#232 = EDGE_CURVE ( 'NONE', #273, #273, #96, .T. ) ;
#233 = CARTESIAN_POINT ( 'NONE',  ( 0.0000000000000000000, 0.0000000000000000000, 0.0000000000000000000 ) ) ;
#234 = CALENDAR_DATE ( 2021, 26, 11 ) ;
#235 = ADVANCED_FACE ( 'NONE', ( #11 ), #133, .F. ) ;
#236 = CARTESIAN_POINT ( 'NONE',  ( 2.094888803305880013E-14, 0.2584999999999991749, 6.000000000000000000 ) ) ;
#237 = EDGE_LOOP ( 'NONE', ( #42 ) ) ;
#238 = FACE_BOUND ( 'NONE', #104, .T. ) ;
#239 = ADVANCED_FACE ( 'NONE', ( #7, #94 ), #178, .T. ) ;
#240 = ORIENTED_EDGE ( 'NONE', *, *, #164, .T. ) ;
#241 = LOCAL_TIME ( 15, 47, 18.00000000000000000, #12 ) ;
#242 = EDGE_LOOP ( 'NONE', ( #18 ) ) ;
#243 = DIRECTION ( 'NONE',  ( -3.491481338843133355E-15, 1.224646799147352961E-16, -1.000000000000000000 ) ) ;
#244 = CARTESIAN_POINT ( 'NONE',  ( 2.094888803305880013E-14, -7.347880794884118750E-16, 6.000000000000000000 ) ) ;
#245 = CARTESIAN_POINT ( 'NONE',  ( 3.491481338843133355E-16, -1.224646799147352807E-17, 0.09999999999999999167 ) ) ;
#246 = AXIS2_PLACEMENT_3D ( 'NONE', #245, #267, #51 ) ;
#247 = CARTESIAN_POINT ( 'NONE',  ( 1.316288464743861212E-13, -4.616918432785520292E-15, 37.69999999999999574 ) ) ;
#248 = CARTESIAN_POINT ( 'NONE',  ( 1.326762908760390423E-13, 1.199999999999998845, 38.00000000000000000 ) ) ;
#249 = PRODUCT_DEFINITION_FORMATION_WITH_SPECIFIED_SOURCE ( 'ANY', '', #4, .NOT_KNOWN. ) ;
#250 = SHAPE_DEFINITION_REPRESENTATION ( #66, #137 ) ;
#251 = APPROVAL ( #99, 'UNSPECIFIED' ) ;
#252 = CARTESIAN_POINT ( 'NONE',  ( 3.491481338843134341E-16, 0.2584999999999992859, 0.1000000000000000194 ) ) ;
#253 = PERSON_AND_ORGANIZATION_ROLE ( 'design_supplier' ) ;
#254 = DATE_AND_TIME ( #272, #168 ) ;
#255 = ORIENTED_EDGE ( 'NONE', *, *, #98, .T. ) ;
#256 = CC_DESIGN_APPROVAL ( #77, ( #40 ) ) ;
#257 = ORIENTED_EDGE ( 'NONE', *, *, #125, .T. ) ;
#258 = EDGE_LOOP ( 'NONE', ( #207 ) ) ;
#259 = MANIFOLD_SOLID_BREP ( 'Corps-Déplacer/Copier1[1]', #135 ) ;
#260 = FACE_OUTER_BOUND ( 'NONE', #237, .T. ) ;
#261 = APPROVAL_ROLE ( '' ) ;
#262 = MANIFOLD_SOLID_BREP ( 'Corps-Déplacer/Copier1[2]', #274 ) ;
#263 = CIRCLE ( 'NONE', #196, 0.2584999999999999520 ) ;
#264 = ORIENTED_EDGE ( 'NONE', *, *, #158, .F. ) ;
#265 = DIRECTION ( 'NONE',  ( -3.491481338843133355E-15, 1.224646799147352961E-16, -1.000000000000000000 ) ) ;
#266 = FACE_OUTER_BOUND ( 'NONE', #213, .T. ) ;
#267 = DIRECTION ( 'NONE',  ( -3.491481338843133355E-15, 1.224646799147352961E-16, -1.000000000000000000 ) ) ;
#268 = AXIS2_PLACEMENT_3D ( 'NONE', #175, #265, #92 ) ;
#269 = DIRECTION ( 'NONE',  ( 0.0000000000000000000, -1.000000000000000000, 0.0000000000000000000 ) ) ;
#270 = DIRECTION ( 'NONE',  ( -3.491481338843133355E-15, 1.224646799147352961E-16, -1.000000000000000000 ) ) ;
#271 = APPROVAL ( #161, 'UNSPECIFIED' ) ;
#272 = CALENDAR_DATE ( 2021, 26, 11 ) ;
#273 = VERTEX_POINT ( 'NONE', #277 ) ;
#274 = CLOSED_SHELL ( 'NONE', ( #49, #179, #90, #129 ) ) ;
#275 = AXIS2_PLACEMENT_3D ( 'NONE', #114, #270, #134 ) ;
#276 = ADVANCED_FACE ( 'NONE', ( #142 ), #191, .F. ) ;
#277 = CARTESIAN_POINT ( 'NONE',  ( 1.316288464743861212E-13, 1.499999999999998668, 37.69999999999999574 ) ) ;
#278 = CARTESIAN_POINT ( 'NONE',  ( 2.216146677675516085E-14, 0.2888844939755805807, 6.347296355333846840 ) ) ;
#279 = EDGE_LOOP ( 'NONE', ( #41 ) ) ;
#280 = PERSON_AND_ORGANIZATION ( #13, #39 ) ;
#281 = EDGE_LOOP ( 'NONE', ( #189 ) ) ;
#282 = CIRCLE ( 'NONE', #136, 0.2584999999999997300 ) ;
#283 = ORIENTED_EDGE ( 'NONE', *, *, #68, .F. ) ;
ENDSEC;
END-ISO-10303-21;
