ISO-10303-21;
HEADER;
FILE_DESCRIPTION (( 'STEP AP203' ),
    '1' );
FILE_NAME ('200006.step',
    '2021-11-26T14:47:17',
    ( '' ),
    ( '' ),
    'SwSTEP 2.0',
    'SolidWorks 2019',
    '' );
FILE_SCHEMA (( 'CONFIG_CONTROL_DESIGN' ));
ENDSEC;

DATA;
#1 = FACE_OUTER_BOUND ( 'NONE', #102, .T. ) ;
#2 = PLANE ( 'NONE',  #12 ) ;
#3 = AXIS2_PLACEMENT_3D ( 'NONE', #44, #218, #15 ) ;
#4 = SECURITY_CLASSIFICATION_LEVEL ( 'unclassified' ) ;
#5 = ADVANCED_FACE ( 'NONE', ( #238, #131 ), #36, .T. ) ;
#6 = DIRECTION ( 'NONE',  ( 0.0000000000000000000, 0.0000000000000000000, 1.000000000000000000 ) ) ;
#7 = CC_DESIGN_PERSON_AND_ORGANIZATION_ASSIGNMENT ( #121, #231, ( #267 ) ) ;
#8 = PERSON_AND_ORGANIZATION_ROLE ( 'design_supplier' ) ;
#9 = ORIENTED_EDGE ( 'NONE', *, *, #100, .F. ) ;
#10 = ADVANCED_BREP_SHAPE_REPRESENTATION ( '200006', ( #97, #180, #74 ), #18 ) ;
#11 = CARTESIAN_POINT ( 'NONE',  ( 0.0000000000000000000, 0.0000000000000000000, 0.0000000000000000000 ) ) ;
#12 = AXIS2_PLACEMENT_3D ( 'NONE', #71, #262, #163 ) ;
#13 = DIRECTION ( 'NONE',  ( -3.491481338843133355E-15, 1.224646799147352961E-16, -1.000000000000000000 ) ) ;
#14 = DIRECTION ( 'NONE',  ( 3.491481338843133355E-15, -1.224646799147352961E-16, 1.000000000000000000 ) ) ;
#15 = DIRECTION ( 'NONE',  ( 0.0000000000000000000, 1.000000000000000000, 0.0000000000000000000 ) ) ;
#16 = EDGE_CURVE ( 'NONE', #26, #26, #50, .T. ) ;
#17 = ORIENTED_EDGE ( 'NONE', *, *, #85, .F. ) ;
#18 =( GEOMETRIC_REPRESENTATION_CONTEXT ( 3 ) GLOBAL_UNCERTAINTY_ASSIGNED_CONTEXT ( ( #81 ) ) GLOBAL_UNIT_ASSIGNED_CONTEXT ( ( #116, #161, #69 ) ) REPRESENTATION_CONTEXT ( 'NONE', 'WORKASPACE' ) );
#19 = CARTESIAN_POINT ( 'NONE',  ( 1.326762908760390423E-13, 8.998558695971099120E-33, 38.00000000000000000 ) ) ;
#20 = PERSON ( 'UNSPECIFIED', 'UNSPECIFIED', 'UNSPECIFIED', ('UNSPECIFIED'), ('UNSPECIFIED'), ('UNSPECIFIED') ) ;
#21 = CC_DESIGN_PERSON_AND_ORGANIZATION_ASSIGNMENT ( #98, #8, ( #267 ) ) ;
#22 = FACE_OUTER_BOUND ( 'NONE', #106, .T. ) ;
#23 = CARTESIAN_POINT ( 'NONE',  ( 1.326762908760390423E-13, 1.199999999999998845, 38.00000000000000000 ) ) ;
#24 = PRODUCT_DEFINITION_SHAPE ( 'NONE', 'NONE',  #243 ) ;
#25 = AXIS2_PLACEMENT_3D ( 'NONE', #37, #13, #195 ) ;
#26 = VERTEX_POINT ( 'NONE', #225 ) ;
#27 = VERTEX_POINT ( 'NONE', #206 ) ;
#28 = AXIS2_PLACEMENT_3D ( 'NONE', #272, #133, #60 ) ;
#29 = CC_DESIGN_SECURITY_CLASSIFICATION ( #142, ( #267 ) ) ;
#30 = DATE_AND_TIME ( #265, #175 ) ;
#31 = APPROVAL ( #33, 'UNSPECIFIED' ) ;
#32 = DATE_TIME_ROLE ( 'creation_date' ) ;
#33 = APPROVAL_STATUS ( 'not_yet_approved' ) ;
#34 = DATE_AND_TIME ( #210, #237 ) ;
#35 = TOROIDAL_SURFACE ( 'NONE', #192, 2.298500000000000210, 2.000000000000000000 ) ;
#36 = CYLINDRICAL_SURFACE ( 'NONE', #154, 1.500000000000000000 ) ;
#37 = CARTESIAN_POINT ( 'NONE',  ( 1.326762908760390423E-13, -4.653657836759941152E-15, 38.00000000000000000 ) ) ;
#38 = FACE_OUTER_BOUND ( 'NONE', #253, .T. ) ;
#39 = APPROVAL_PERSON_ORGANIZATION ( #144, #31, #233 ) ;
#40 = ADVANCED_FACE ( 'NONE', ( #88, #193 ), #252, .T. ) ;
#41 = CARTESIAN_POINT ( 'NONE',  ( 1.396592535537253342E-14, -4.898587196589411843E-16, 4.000000000000000000 ) ) ;
#42 = DIRECTION ( 'NONE',  ( -3.491481338843133355E-15, 1.224646799147352961E-16, -1.000000000000000000 ) ) ;
#43 = APPLICATION_CONTEXT ( 'configuration controlled 3d designs of mechanical parts and assemblies' ) ;
#44 = CARTESIAN_POINT ( 'NONE',  ( 4.535092943576130561E-14, -1.590696474702190253E-15, 12.98902243332277884 ) ) ;
#45 = ORIENTED_EDGE ( 'NONE', *, *, #179, .F. ) ;
#46 = DIRECTION ( 'NONE',  ( 4.275831445896957731E-31, 1.000000000000000000, 1.224646799147352961E-16 ) ) ;
#47 = AXIS2_PLACEMENT_3D ( 'NONE', #41, #273, #86 ) ;
#48 = DIRECTION ( 'NONE',  ( -4.275831445896957731E-31, -1.000000000000000000, -1.224646799147352961E-16 ) ) ;
#49 = DIRECTION ( 'NONE',  ( 3.491481338843133355E-15, -1.224646799147352961E-16, 1.000000000000000000 ) ) ;
#50 = CIRCLE ( 'NONE', #3, 1.499999999999996891 ) ;
#51 = CC_DESIGN_DATE_AND_TIME_ASSIGNMENT ( #77, #32, ( #243 ) ) ;
#52 = CARTESIAN_POINT ( 'NONE',  ( 3.491481338843133848E-16, 0.2984999999999992104, 0.1000000000000000056 ) ) ;
#53 = DATE_AND_TIME ( #227, #99 ) ;
#54 = AXIS2_PLACEMENT_3D ( 'NONE', #92, #178, #105 ) ;
#55 = COORDINATED_UNIVERSAL_TIME_OFFSET ( 1, 0, .AHEAD. ) ;
#56 = EDGE_LOOP ( 'NONE', ( #255 ) ) ;
#57 = APPROVAL_ROLE ( '' ) ;
#58 = APPROVAL ( #213, 'UNSPECIFIED' ) ;
#59 = ORIENTED_EDGE ( 'NONE', *, *, #139, .F. ) ;
#60 = DIRECTION ( 'NONE',  ( 0.0000000000000000000, -1.000000000000000000, 0.0000000000000000000 ) ) ;
#61 = COORDINATED_UNIVERSAL_TIME_OFFSET ( 1, 0, .AHEAD. ) ;
#62 = ADVANCED_FACE ( 'NONE', ( #235, #176 ), #78, .T. ) ;
#63 = ORIENTED_EDGE ( 'NONE', *, *, #16, .F. ) ;
#64 = AXIS2_PLACEMENT_3D ( 'NONE', #120, #95, #184 ) ;
#65 = CARTESIAN_POINT ( 'NONE',  ( 0.0000000000000000000, 0.0000000000000000000, 0.0000000000000000000 ) ) ;
#66 = CARTESIAN_POINT ( 'NONE',  ( -1.502654399566225155E-31, 5.270602137209770619E-33, -4.303773251911792128E-17 ) ) ;
#67 = CARTESIAN_POINT ( 'NONE',  ( 1.316288464743861212E-13, -4.616918432785520292E-15, 37.69999999999999574 ) ) ;
#68 = ORIENTED_EDGE ( 'NONE', *, *, #224, .F. ) ;
#69 =( NAMED_UNIT ( * ) SI_UNIT ( $, .STERADIAN. ) SOLID_ANGLE_UNIT ( ) );
#70 = AXIS2_PLACEMENT_3D ( 'NONE', #66, #72, #200 ) ;
#71 = CARTESIAN_POINT ( 'NONE',  ( 1.396592535537253342E-14, 2.238391475622812955E-33, 4.000000000000000000 ) ) ;
#72 = DIRECTION ( 'NONE',  ( -3.491481338843133355E-15, 1.224646799147352961E-16, -1.000000000000000000 ) ) ;
#73 = PLANE ( 'NONE',  #89 ) ;
#74 = AXIS2_PLACEMENT_3D ( 'NONE', #147, #6, #247 ) ;
#75 = CARTESIAN_POINT ( 'NONE',  ( -4.731839565957903391E-32, 0.2407649730810375033, -1.355252715606880543E-17 ) ) ;
#76 = APPROVAL ( #229, 'UNSPECIFIED' ) ;
#77 = DATE_AND_TIME ( #125, #278 ) ;
#78 = CONICAL_SURFACE ( 'NONE', #25, 1.200000000000003286, 0.7853981633974453924 ) ;
#79 = PERSON_AND_ORGANIZATION_ROLE ( 'classification_officer' ) ;
#80 = APPROVAL_DATE_TIME ( #34, #31 ) ;
#81 = UNCERTAINTY_MEASURE_WITH_UNIT (LENGTH_MEASURE( 1.000000000000000082E-05 ), #116, 'distance_accuracy_value', 'NONE');
#82 = EDGE_CURVE ( 'NONE', #111, #111, #118, .T. ) ;
#83 = EDGE_LOOP ( 'NONE', ( #134 ) ) ;
#84 = EDGE_LOOP ( 'NONE', ( #17 ) ) ;
#85 = EDGE_CURVE ( 'NONE', #245, #245, #164, .T. ) ;
#86 = DIRECTION ( 'NONE',  ( 0.0000000000000000000, 1.000000000000000000, 0.0000000000000000000 ) ) ;
#87 = CARTESIAN_POINT ( 'NONE',  ( 3.491481338843132369E-16, -1.224646799147352498E-17, 0.09999999999999996392 ) ) ;
#88 = FACE_BOUND ( 'NONE', #155, .T. ) ;
#89 = AXIS2_PLACEMENT_3D ( 'NONE', #138, #49, #48 ) ;
#90 = SHAPE_DEFINITION_REPRESENTATION ( #24, #10 ) ;
#91 = EDGE_LOOP ( 'NONE', ( #248 ) ) ;
#92 = CARTESIAN_POINT ( 'NONE',  ( 2.216146677675516085E-14, -7.773196164799255877E-16, 6.347296355333846840 ) ) ;
#93 = ORGANIZATION ( 'UNSPECIFIED', 'UNSPECIFIED', '' ) ;
#94 = DIRECTION ( 'NONE',  ( 0.0000000000000000000, 1.000000000000000000, 0.0000000000000000000 ) ) ;
#95 = DIRECTION ( 'NONE',  ( -3.491481338843133355E-15, 1.224646799147352961E-16, -1.000000000000000000 ) ) ;
#96 = CLOSED_SHELL ( 'NONE', ( #215, #174, #208, #268 ) ) ;
#97 = MANIFOLD_SOLID_BREP ( 'Corps-Déplacer/Copier1[1]', #207 ) ;
#98 = PERSON_AND_ORGANIZATION ( #20, #93 ) ;
#99 = LOCAL_TIME ( 15, 47, 17.00000000000000000, #232 ) ;
#100 = EDGE_CURVE ( 'NONE', #202, #202, #167, .T. ) ;
#101 = PERSON_AND_ORGANIZATION ( #20, #93 ) ;
#102 = EDGE_LOOP ( 'NONE', ( #170 ) ) ;
#103 = DIRECTION ( 'NONE',  ( 4.275831445896957731E-31, 1.000000000000000000, 1.224646799147353207E-16 ) ) ;
#104 = DIRECTION ( 'NONE',  ( 4.399387544085905162E-31, 1.000000000000000000, 1.224646799147352961E-16 ) ) ;
#105 = DIRECTION ( 'NONE',  ( 0.0000000000000000000, 1.000000000000000000, 0.0000000000000000000 ) ) ;
#106 = EDGE_LOOP ( 'NONE', ( #217 ) ) ;
#107 = APPROVAL_ROLE ( '' ) ;
#108 = EDGE_LOOP ( 'NONE', ( #68 ) ) ;
#109 = APPROVAL_PERSON_ORGANIZATION ( #124, #58, #107 ) ;
#110 = DIRECTION ( 'NONE',  ( -4.839019960771962169E-31, -1.000000000000000000, -1.362063030760687562E-16 ) ) ;
#111 = VERTEX_POINT ( 'NONE', #185 ) ;
#112 = CARTESIAN_POINT ( 'NONE',  ( 3.491481338843132369E-16, -1.224646799147352498E-17, 0.09999999999999996392 ) ) ;
#113 = FACE_OUTER_BOUND ( 'NONE', #279, .T. ) ;
#114 = EDGE_CURVE ( 'NONE', #242, #242, #203, .T. ) ;
#115 = PRODUCT ( '200006', '200006', '', ( #269 ) ) ;
#116 =( LENGTH_UNIT ( ) NAMED_UNIT ( * ) SI_UNIT ( .MILLI., .METRE. ) );
#117 = CIRCLE ( 'NONE', #54, 0.3288844939755815600 ) ;
#118 = CIRCLE ( 'NONE', #47, 0.2984999999999997655 ) ;
#119 = FACE_OUTER_BOUND ( 'NONE', #199, .T. ) ;
#120 = CARTESIAN_POINT ( 'NONE',  ( 1.326762908760390423E-13, -4.653657836759941152E-15, 38.00000000000000000 ) ) ;
#121 = PERSON_AND_ORGANIZATION ( #20, #93 ) ;
#122 = CIRCLE ( 'NONE', #136, 0.2984999999999997655 ) ;
#123 = DATE_TIME_ROLE ( 'classification_date' ) ;
#124 = PERSON_AND_ORGANIZATION ( #20, #93 ) ;
#125 = CALENDAR_DATE ( 2021, 26, 11 ) ;
#126 = CC_DESIGN_APPROVAL ( #31, ( #243 ) ) ;
#127 = APPROVAL_DATE_TIME ( #53, #76 ) ;
#128 = CC_DESIGN_PERSON_AND_ORGANIZATION_ASSIGNMENT ( #266, #145, ( #115 ) ) ;
#129 = DIRECTION ( 'NONE',  ( -3.491481338843133355E-15, 1.224646799147352961E-16, -1.000000000000000000 ) ) ;
#130 = CARTESIAN_POINT ( 'NONE',  ( 2.094888803305880013E-14, -8.673617379884035472E-16, 6.000000000000000000 ) ) ;
#131 = FACE_OUTER_BOUND ( 'NONE', #172, .T. ) ;
#132 = FACE_OUTER_BOUND ( 'NONE', #152, .T. ) ;
#133 = DIRECTION ( 'NONE',  ( 3.491481338843133355E-15, -1.224646799147352961E-16, 1.000000000000000000 ) ) ;
#134 = ORIENTED_EDGE ( 'NONE', *, *, #224, .T. ) ;
#135 = DIRECTION ( 'NONE',  ( 0.0000000000000000000, 1.000000000000000000, 0.0000000000000000000 ) ) ;
#136 = AXIS2_PLACEMENT_3D ( 'NONE', #194, #216, #219 ) ;
#137 = VERTEX_POINT ( 'NONE', #221 ) ;
#138 = CARTESIAN_POINT ( 'NONE',  ( -7.513271997831125776E-32, 2.635301068604885310E-33, -2.151886625955896064E-17 ) ) ;
#139 = EDGE_CURVE ( 'NONE', #264, #264, #122, .T. ) ;
#140 = DIRECTION ( 'NONE',  ( 4.275831445896957731E-31, 1.000000000000000000, 1.224646799147352961E-16 ) ) ;
#141 = PLANE ( 'NONE',  #260 ) ;
#142 = SECURITY_CLASSIFICATION ( '', '', #4 ) ;
#143 = CARTESIAN_POINT ( 'NONE',  ( 1.316288464743861212E-13, 1.499999999999998668, 37.69999999999999574 ) ) ;
#144 = PERSON_AND_ORGANIZATION ( #20, #93 ) ;
#145 = PERSON_AND_ORGANIZATION_ROLE ( 'design_owner' ) ;
#146 = CIRCLE ( 'NONE', #223, 0.2985000000000000431 ) ;
#147 = CARTESIAN_POINT ( 'NONE',  ( 0.0000000000000000000, 0.0000000000000000000, 0.0000000000000000000 ) ) ;
#148 = ORIENTED_EDGE ( 'NONE', *, *, #228, .F. ) ;
#149 = APPLICATION_CONTEXT ( 'configuration controlled 3d designs of mechanical parts and assemblies' ) ;
#150 = CC_DESIGN_APPROVAL ( #58, ( #142 ) ) ;
#151 = EDGE_LOOP ( 'NONE', ( #275 ) ) ;
#152 = EDGE_LOOP ( 'NONE', ( #177 ) ) ;
#153 = FACE_BOUND ( 'NONE', #84, .T. ) ;
#154 = AXIS2_PLACEMENT_3D ( 'NONE', #11, #129, #103 ) ;
#155 = EDGE_LOOP ( 'NONE', ( #45 ) ) ;
#156 = CC_DESIGN_PERSON_AND_ORGANIZATION_ASSIGNMENT ( #165, #169, ( #243 ) ) ;
#157 = DIRECTION ( 'NONE',  ( -3.491481338843133355E-15, 1.224646799147352961E-16, -1.000000000000000000 ) ) ;
#158 = ORIENTED_EDGE ( 'NONE', *, *, #179, .T. ) ;
#159 = AXIS2_PLACEMENT_3D ( 'NONE', #112, #42, #276 ) ;
#160 = DIRECTION ( 'NONE',  ( 3.491481338843133355E-15, -1.224646799147352961E-16, 1.000000000000000000 ) ) ;
#161 =( NAMED_UNIT ( * ) PLANE_ANGLE_UNIT ( ) SI_UNIT ( $, .RADIAN. ) );
#162 = DIRECTION ( 'NONE',  ( -3.491481338843133355E-15, 1.224646799147352961E-16, -1.000000000000000000 ) ) ;
#163 = DIRECTION ( 'NONE',  ( -4.275831445896957731E-31, -1.000000000000000000, -1.224646799147352961E-16 ) ) ;
#164 = CIRCLE ( 'NONE', #70, 0.2407649730810375033 ) ;
#165 = PERSON_AND_ORGANIZATION ( #20, #93 ) ;
#166 = ADVANCED_FACE ( 'NONE', ( #38, #271 ), #35, .F. ) ;
#167 = CIRCLE ( 'NONE', #159, 0.2984999999999992104 ) ;
#168 = APPLICATION_PROTOCOL_DEFINITION ( 'international standard', 'config_control_design', 1994, #43 ) ;
#169 = PERSON_AND_ORGANIZATION_ROLE ( 'creator' ) ;
#170 = ORIENTED_EDGE ( 'NONE', *, *, #82, .F. ) ;
#171 = ORIENTED_EDGE ( 'NONE', *, *, #114, .F. ) ;
#172 = EDGE_LOOP ( 'NONE', ( #214 ) ) ;
#173 = FACE_OUTER_BOUND ( 'NONE', #56, .T. ) ;
#174 = ADVANCED_FACE ( 'NONE', ( #153, #132 ), #220, .T. ) ;
#175 = LOCAL_TIME ( 15, 47, 17.00000000000000000, #187 ) ;
#176 = FACE_BOUND ( 'NONE', #83, .T. ) ;
#177 = ORIENTED_EDGE ( 'NONE', *, *, #100, .T. ) ;
#178 = DIRECTION ( 'NONE',  ( -3.491481338843133355E-15, 1.224646799147352961E-16, -1.000000000000000000 ) ) ;
#179 = EDGE_CURVE ( 'NONE', #137, #137, #117, .T. ) ;
#180 = MANIFOLD_SOLID_BREP ( 'Corps-Déplacer/Copier1[2]', #96 ) ;
#181 = AXIS2_PLACEMENT_3D ( 'NONE', #201, #205, #140 ) ;
#182 = DIRECTION ( 'NONE',  ( -4.275831445896957731E-31, -1.000000000000000000, -1.224646799147352961E-16 ) ) ;
#183 = DIRECTION ( 'NONE',  ( -3.491481338843133355E-15, 1.224646799147352961E-16, -1.000000000000000000 ) ) ;
#184 = DIRECTION ( 'NONE',  ( 0.0000000000000000000, 1.000000000000000000, 0.0000000000000000000 ) ) ;
#185 = CARTESIAN_POINT ( 'NONE',  ( 1.396592535537253342E-14, 0.2984999999999992659, 4.000000000000000000 ) ) ;
#186 = APPROVAL_PERSON_ORGANIZATION ( #250, #76, #57 ) ;
#187 = COORDINATED_UNIVERSAL_TIME_OFFSET ( 1, 0, .AHEAD. ) ;
#188 = COORDINATED_UNIVERSAL_TIME_OFFSET ( 1, 0, .AHEAD. ) ;
#189 = ADVANCED_FACE ( 'NONE', ( #274, #173 ), #257, .T. ) ;
#190 = CIRCLE ( 'NONE', #64, 1.200000000000003286 ) ;
#191 = EDGE_LOOP ( 'NONE', ( #59 ) ) ;
#192 = AXIS2_PLACEMENT_3D ( 'NONE', #130, #196, #104 ) ;
#193 = FACE_OUTER_BOUND ( 'NONE', #91, .T. ) ;
#194 = CARTESIAN_POINT ( 'NONE',  ( 1.396592535537253342E-14, -4.898587196589411843E-16, 4.000000000000000000 ) ) ;
#195 = DIRECTION ( 'NONE',  ( 0.0000000000000000000, 1.000000000000000000, 0.0000000000000000000 ) ) ;
#196 = DIRECTION ( 'NONE',  ( -3.491481338843133355E-15, 1.224646799147352961E-16, -1.000000000000000000 ) ) ;
#197 = CALENDAR_DATE ( 2021, 26, 11 ) ;
#198 = AXIS2_PLACEMENT_3D ( 'NONE', #19, #162, #46 ) ;
#199 = EDGE_LOOP ( 'NONE', ( #256 ) ) ;
#200 = DIRECTION ( 'NONE',  ( 4.275831445896957731E-31, 1.000000000000000000, 1.224646799147352961E-16 ) ) ;
#201 = CARTESIAN_POINT ( 'NONE',  ( 0.0000000000000000000, 0.0000000000000000000, 0.0000000000000000000 ) ) ;
#202 = VERTEX_POINT ( 'NONE', #52 ) ;
#203 = CIRCLE ( 'NONE', #230, 1.500000000000003331 ) ;
#204 = CARTESIAN_POINT ( 'NONE',  ( 1.396592535537253342E-14, 0.2984999999999992659, 4.000000000000000000 ) ) ;
#205 = DIRECTION ( 'NONE',  ( -3.491481338843133355E-15, 1.224646799147352961E-16, -1.000000000000000000 ) ) ;
#206 = CARTESIAN_POINT ( 'NONE',  ( 2.094888803305880013E-14, 0.2984999999999992659, 6.000000000000000000 ) ) ;
#207 = CLOSED_SHELL ( 'NONE', ( #251, #189, #166, #40, #5, #62, #282 ) ) ;
#208 = ADVANCED_FACE ( 'NONE', ( #113, #22 ), #240, .T. ) ;
#209 = AXIS2_PLACEMENT_3D ( 'NONE', #87, #14, #110 ) ;
#210 = CALENDAR_DATE ( 2021, 26, 11 ) ;
#211 = DESIGN_CONTEXT ( 'detailed design', #43, 'design' ) ;
#212 = EDGE_LOOP ( 'NONE', ( #63 ) ) ;
#213 = APPROVAL_STATUS ( 'not_yet_approved' ) ;
#214 = ORIENTED_EDGE ( 'NONE', *, *, #114, .T. ) ;
#215 = ADVANCED_FACE ( 'NONE', ( #244 ), #73, .F. ) ;
#216 = DIRECTION ( 'NONE',  ( -3.491481338843133355E-15, 1.224646799147352961E-16, -1.000000000000000000 ) ) ;
#217 = ORIENTED_EDGE ( 'NONE', *, *, #82, .T. ) ;
#218 = DIRECTION ( 'NONE',  ( -3.491481338843133355E-15, 1.224646799147352961E-16, -1.000000000000000000 ) ) ;
#219 = DIRECTION ( 'NONE',  ( 0.0000000000000000000, 1.000000000000000000, 0.0000000000000000000 ) ) ;
#220 = CONICAL_SURFACE ( 'NONE', #209, 0.2984999999999992104, 0.5235987755982923764 ) ;
#221 = CARTESIAN_POINT ( 'NONE',  ( 2.216146677675516085E-14, 0.3288844939755807828, 6.347296355333846840 ) ) ;
#222 = DIRECTION ( 'NONE',  ( -3.491481338843133355E-15, 1.224646799147352961E-16, -1.000000000000000000 ) ) ;
#223 = AXIS2_PLACEMENT_3D ( 'NONE', #283, #222, #94 ) ;
#224 = EDGE_CURVE ( 'NONE', #281, #281, #190, .T. ) ;
#225 = CARTESIAN_POINT ( 'NONE',  ( 4.535092943576130561E-14, 1.499999999999995559, 12.98902243332277884 ) ) ;
#226 = DIRECTION ( 'NONE',  ( 4.275831445896957731E-31, 1.000000000000000000, 1.224646799147352961E-16 ) ) ;
#227 = CALENDAR_DATE ( 2021, 26, 11 ) ;
#228 = EDGE_CURVE ( 'NONE', #27, #27, #146, .T. ) ;
#229 = APPROVAL_STATUS ( 'not_yet_approved' ) ;
#230 = AXIS2_PLACEMENT_3D ( 'NONE', #67, #157, #135 ) ;
#231 = PERSON_AND_ORGANIZATION_ROLE ( 'creator' ) ;
#232 = COORDINATED_UNIVERSAL_TIME_OFFSET ( 1, 0, .AHEAD. ) ;
#233 = APPROVAL_ROLE ( '' ) ;
#234 = PRODUCT_RELATED_PRODUCT_CATEGORY ( 'detail', '', ( #115 ) ) ;
#235 = FACE_OUTER_BOUND ( 'NONE', #239, .T. ) ;
#236 = APPROVAL_DATE_TIME ( #277, #58 ) ;
#237 = LOCAL_TIME ( 15, 47, 17.00000000000000000, #188 ) ;
#238 = FACE_OUTER_BOUND ( 'NONE', #212, .T. ) ;
#239 = EDGE_LOOP ( 'NONE', ( #171 ) ) ;
#240 = CYLINDRICAL_SURFACE ( 'NONE', #181, 0.2984999999999994880 ) ;
#241 = PLANE ( 'NONE',  #198 ) ;
#242 = VERTEX_POINT ( 'NONE', #143 ) ;
#243 = PRODUCT_DEFINITION ( 'UNKNOWN', '', #267, #211 ) ;
#244 = FACE_OUTER_BOUND ( 'NONE', #151, .T. ) ;
#245 = VERTEX_POINT ( 'NONE', #75 ) ;
#246 = APPLICATION_PROTOCOL_DEFINITION ( 'international standard', 'config_control_design', 1994, #149 ) ;
#247 = DIRECTION ( 'NONE',  ( 1.000000000000000000, 0.0000000000000000000, 0.0000000000000000000 ) ) ;
#248 = ORIENTED_EDGE ( 'NONE', *, *, #16, .T. ) ;
#249 = AXIS2_PLACEMENT_3D ( 'NONE', #65, #183, #226 ) ;
#250 = PERSON_AND_ORGANIZATION ( #20, #93 ) ;
#251 = ADVANCED_FACE ( 'NONE', ( #119 ), #141, .F. ) ;
#252 = CONICAL_SURFACE ( 'NONE', #28, 1.499999999999996891, 0.1745329251994260089 ) ;
#253 = EDGE_LOOP ( 'NONE', ( #148 ) ) ;
#254 = CC_DESIGN_PERSON_AND_ORGANIZATION_ASSIGNMENT ( #101, #79, ( #142 ) ) ;
#255 = ORIENTED_EDGE ( 'NONE', *, *, #228, .T. ) ;
#256 = ORIENTED_EDGE ( 'NONE', *, *, #139, .T. ) ;
#257 = CYLINDRICAL_SURFACE ( 'NONE', #249, 0.2984999999999999321 ) ;
#258 = CC_DESIGN_APPROVAL ( #76, ( #267 ) ) ;
#259 = FACE_OUTER_BOUND ( 'NONE', #108, .T. ) ;
#260 = AXIS2_PLACEMENT_3D ( 'NONE', #261, #160, #182 ) ;
#261 = CARTESIAN_POINT ( 'NONE',  ( 1.396592535537253342E-14, 2.238391475622812955E-33, 4.000000000000000000 ) ) ;
#262 = DIRECTION ( 'NONE',  ( 3.491481338843133355E-15, -1.224646799147352961E-16, 1.000000000000000000 ) ) ;
#263 = LOCAL_TIME ( 15, 47, 17.00000000000000000, #61 ) ;
#264 = VERTEX_POINT ( 'NONE', #204 ) ;
#265 = CALENDAR_DATE ( 2021, 26, 11 ) ;
#266 = PERSON_AND_ORGANIZATION ( #20, #93 ) ;
#267 = PRODUCT_DEFINITION_FORMATION_WITH_SPECIFIED_SOURCE ( 'ANY', '', #115, .NOT_KNOWN. ) ;
#268 = ADVANCED_FACE ( 'NONE', ( #1 ), #2, .T. ) ;
#269 = MECHANICAL_CONTEXT ( 'NONE', #149, 'mechanical' ) ;
#270 = EDGE_LOOP ( 'NONE', ( #158 ) ) ;
#271 = FACE_OUTER_BOUND ( 'NONE', #270, .T. ) ;
#272 = CARTESIAN_POINT ( 'NONE',  ( 4.535092943576130561E-14, -1.590696474702190253E-15, 12.98902243332277884 ) ) ;
#273 = DIRECTION ( 'NONE',  ( -3.491481338843133355E-15, 1.224646799147352961E-16, -1.000000000000000000 ) ) ;
#274 = FACE_OUTER_BOUND ( 'NONE', #191, .T. ) ;
#275 = ORIENTED_EDGE ( 'NONE', *, *, #85, .T. ) ;
#276 = DIRECTION ( 'NONE',  ( 4.839019960771962169E-31, 1.000000000000000000, 1.362063030760687562E-16 ) ) ;
#277 = DATE_AND_TIME ( #197, #263 ) ;
#278 = LOCAL_TIME ( 15, 47, 17.00000000000000000, #55 ) ;
#279 = EDGE_LOOP ( 'NONE', ( #9 ) ) ;
#280 = CC_DESIGN_DATE_AND_TIME_ASSIGNMENT ( #30, #123, ( #142 ) ) ;
#281 = VERTEX_POINT ( 'NONE', #23 ) ;
#282 = ADVANCED_FACE ( 'NONE', ( #259 ), #241, .F. ) ;
#283 = CARTESIAN_POINT ( 'NONE',  ( 2.094888803305880013E-14, -7.347880794884118750E-16, 6.000000000000000000 ) ) ;
ENDSEC;
END-ISO-10303-21;
