ISO-10303-21;
HEADER;
FILE_DESCRIPTION (( 'STEP AP203' ),
    '1' );
FILE_NAME ('200005.step',
    '2021-11-26T14:47:17',
    ( '' ),
    ( '' ),
    'SwSTEP 2.0',
    'SolidWorks 2019',
    '' );
FILE_SCHEMA (( 'CONFIG_CONTROL_DESIGN' ));
ENDSEC;

DATA;
#1 = DIRECTION ( 'NONE',  ( 0.0000000000000000000, 1.000000000000000000, 0.0000000000000000000 ) ) ;
#2 = ADVANCED_FACE ( 'NONE', ( #165, #70 ), #274, .T. ) ;
#3 = APPROVAL_DATE_TIME ( #244, #178 ) ;
#4 = EDGE_LOOP ( 'NONE', ( #85 ) ) ;
#5 = COORDINATED_UNIVERSAL_TIME_OFFSET ( 1, 0, .AHEAD. ) ;
#6 = EDGE_LOOP ( 'NONE', ( #99 ) ) ;
#7 = AXIS2_PLACEMENT_3D ( 'NONE', #131, #213, #11 ) ;
#8 = FACE_BOUND ( 'NONE', #268, .T. ) ;
#9 = DIRECTION ( 'NONE',  ( 3.491481338843133355E-15, -1.224646799147352961E-16, 1.000000000000000000 ) ) ;
#10 = ORIENTED_EDGE ( 'NONE', *, *, #237, .T. ) ;
#11 = DIRECTION ( 'NONE',  ( 0.0000000000000000000, 1.000000000000000000, 0.0000000000000000000 ) ) ;
#12 = CIRCLE ( 'NONE', #47, 1.499999999999996891 ) ;
#13 = VERTEX_POINT ( 'NONE', #16 ) ;
#14 = ADVANCED_FACE ( 'NONE', ( #108, #84 ), #149, .T. ) ;
#15 = EDGE_LOOP ( 'NONE', ( #26 ) ) ;
#16 = CARTESIAN_POINT ( 'NONE',  ( 1.396592535537253342E-14, 0.2734999999999994102, 4.000000000000000000 ) ) ;
#17 = DIRECTION ( 'NONE',  ( 0.0000000000000000000, 1.000000000000000000, 0.0000000000000000000 ) ) ;
#18 = DIRECTION ( 'NONE',  ( -3.491481338843133355E-15, 1.224646799147352961E-16, -1.000000000000000000 ) ) ;
#19 = PRODUCT ( '200005', '200005', '', ( #73 ) ) ;
#20 = DIRECTION ( 'NONE',  ( 4.275831445896958607E-31, 1.000000000000000000, 1.224646799147352961E-16 ) ) ;
#21 = FACE_OUTER_BOUND ( 'NONE', #247, .T. ) ;
#22 = PERSON_AND_ORGANIZATION ( #208, #145 ) ;
#23 = AXIS2_PLACEMENT_3D ( 'NONE', #89, #110, #193 ) ;
#24 = CARTESIAN_POINT ( 'NONE',  ( 1.396592535537253342E-14, -4.898587196589411843E-16, 4.000000000000000000 ) ) ;
#25 = APPROVAL_ROLE ( '' ) ;
#26 = ORIENTED_EDGE ( 'NONE', *, *, #157, .T. ) ;
#27 = ADVANCED_FACE ( 'NONE', ( #59 ), #231, .F. ) ;
#28 = PRODUCT_DEFINITION_FORMATION_WITH_SPECIFIED_SOURCE ( 'ANY', '', #19, .NOT_KNOWN. ) ;
#29 = EDGE_LOOP ( 'NONE', ( #162 ) ) ;
#30 = APPROVAL_STATUS ( 'not_yet_approved' ) ;
#31 = DIRECTION ( 'NONE',  ( 4.275831445896957731E-31, 1.000000000000000000, 1.224646799147353207E-16 ) ) ;
#32 = COORDINATED_UNIVERSAL_TIME_OFFSET ( 1, 0, .AHEAD. ) ;
#33 = CIRCLE ( 'NONE', #76, 0.3038844939755814822 ) ;
#34 = DIRECTION ( 'NONE',  ( -3.491481338843133355E-15, 1.224646799147352961E-16, -1.000000000000000000 ) ) ;
#35 = DIRECTION ( 'NONE',  ( -3.491481338843133355E-15, 1.224646799147352961E-16, -1.000000000000000000 ) ) ;
#36 = CC_DESIGN_APPROVAL ( #178, ( #28 ) ) ;
#37 = ORIENTED_EDGE ( 'NONE', *, *, #186, .T. ) ;
#38 = VERTEX_POINT ( 'NONE', #250 ) ;
#39 = TOROIDAL_SURFACE ( 'NONE', #265, 2.273500000000000298, 2.000000000000000000 ) ;
#40 = VERTEX_POINT ( 'NONE', #216 ) ;
#41 = CC_DESIGN_PERSON_AND_ORGANIZATION_ASSIGNMENT ( #204, #52, ( #28 ) ) ;
#42 = AXIS2_PLACEMENT_3D ( 'NONE', #106, #254, #87 ) ;
#43 = APPLICATION_CONTEXT ( 'configuration controlled 3d designs of mechanical parts and assemblies' ) ;
#44 = PERSON_AND_ORGANIZATION_ROLE ( 'creator' ) ;
#45 = DIRECTION ( 'NONE',  ( -3.491481338843133355E-15, 1.224646799147352961E-16, -1.000000000000000000 ) ) ;
#46 = EDGE_LOOP ( 'NONE', ( #80 ) ) ;
#47 = AXIS2_PLACEMENT_3D ( 'NONE', #190, #252, #62 ) ;
#48 = ORIENTED_EDGE ( 'NONE', *, *, #186, .F. ) ;
#49 = DATE_AND_TIME ( #103, #122 ) ;
#50 = EDGE_CURVE ( 'NONE', #253, #253, #143, .T. ) ;
#51 = EDGE_LOOP ( 'NONE', ( #226 ) ) ;
#52 = PERSON_AND_ORGANIZATION_ROLE ( 'design_supplier' ) ;
#53 = AXIS2_PLACEMENT_3D ( 'NONE', #167, #192, #17 ) ;
#54 = APPLICATION_CONTEXT ( 'configuration controlled 3d designs of mechanical parts and assemblies' ) ;
#55 = ORIENTED_EDGE ( 'NONE', *, *, #72, .T. ) ;
#56 = CARTESIAN_POINT ( 'NONE',  ( 0.0000000000000000000, 0.0000000000000000000, 0.0000000000000000000 ) ) ;
#57 = APPROVAL_ROLE ( '' ) ;
#58 = AXIS2_PLACEMENT_3D ( 'NONE', #147, #34, #81 ) ;
#59 = FACE_OUTER_BOUND ( 'NONE', #46, .T. ) ;
#60 = CARTESIAN_POINT ( 'NONE',  ( 2.216146677675516400E-14, -7.773196164799256863E-16, 6.347296355333847728 ) ) ;
#61 = FACE_OUTER_BOUND ( 'NONE', #101, .T. ) ;
#62 = DIRECTION ( 'NONE',  ( 0.0000000000000000000, 1.000000000000000000, 0.0000000000000000000 ) ) ;
#63 = CC_DESIGN_DATE_AND_TIME_ASSIGNMENT ( #182, #229, ( #271 ) ) ;
#64 = APPROVAL_PERSON_ORGANIZATION ( #77, #178, #57 ) ;
#65 = CARTESIAN_POINT ( 'NONE',  ( 0.0000000000000000000, 0.2157649730810375366, 0.0000000000000000000 ) ) ;
#66 = DIRECTION ( 'NONE',  ( -3.491481338843133355E-15, 1.224646799147352961E-16, -1.000000000000000000 ) ) ;
#67 = DIRECTION ( 'NONE',  ( 0.0000000000000000000, 1.000000000000000000, 0.0000000000000000000 ) ) ;
#68 = COORDINATED_UNIVERSAL_TIME_OFFSET ( 1, 0, .AHEAD. ) ;
#69 = CARTESIAN_POINT ( 'NONE',  ( 0.0000000000000000000, 0.0000000000000000000, 0.0000000000000000000 ) ) ;
#70 = FACE_OUTER_BOUND ( 'NONE', #124, .T. ) ;
#71 = CIRCLE ( 'NONE', #154, 0.2734999999999992992 ) ;
#72 = EDGE_CURVE ( 'NONE', #40, #40, #12, .T. ) ;
#73 = MECHANICAL_CONTEXT ( 'NONE', #54, 'mechanical' ) ;
#74 = DIRECTION ( 'NONE',  ( 3.491481338843133355E-15, -1.224646799147352961E-16, 1.000000000000000000 ) ) ;
#75 = AXIS2_PLACEMENT_3D ( 'NONE', #240, #91, #198 ) ;
#76 = AXIS2_PLACEMENT_3D ( 'NONE', #60, #35, #67 ) ;
#77 = PERSON_AND_ORGANIZATION ( #208, #145 ) ;
#78 = ADVANCED_FACE ( 'NONE', ( #195, #258 ), #39, .F. ) ;
#79 = SECURITY_CLASSIFICATION ( '', '', #127 ) ;
#80 = ORIENTED_EDGE ( 'NONE', *, *, #224, .T. ) ;
#81 = DIRECTION ( 'NONE',  ( 4.275831445896958607E-31, 1.000000000000000000, 1.224646799147352961E-16 ) ) ;
#82 = CC_DESIGN_PERSON_AND_ORGANIZATION_ASSIGNMENT ( #144, #205, ( #79 ) ) ;
#83 = APPROVAL_PERSON_ORGANIZATION ( #100, #251, #25 ) ;
#84 = FACE_OUTER_BOUND ( 'NONE', #181, .T. ) ;
#85 = ORIENTED_EDGE ( 'NONE', *, *, #169, .T. ) ;
#86 = CARTESIAN_POINT ( 'NONE',  ( 2.094888803305880013E-14, -8.673617379884035472E-16, 6.000000000000000000 ) ) ;
#87 = DIRECTION ( 'NONE',  ( -3.520895693578136923E-31, -1.000000000000000000, -9.910440333505550945E-17 ) ) ;
#88 = LOCAL_TIME ( 15, 47, 16.00000000000000000, #32 ) ;
#89 = CARTESIAN_POINT ( 'NONE',  ( 4.584595880177421465E-14, -1.608059767520834394E-15, 13.13080447881322677 ) ) ;
#90 = VERTEX_POINT ( 'NONE', #170 ) ;
#91 = DIRECTION ( 'NONE',  ( 0.0000000000000000000, 0.0000000000000000000, 1.000000000000000000 ) ) ;
#92 = ADVANCED_FACE ( 'NONE', ( #105, #211 ), #151, .T. ) ;
#93 = APPLICATION_PROTOCOL_DEFINITION ( 'international standard', 'config_control_design', 1994, #43 ) ;
#94 = DIRECTION ( 'NONE',  ( 4.275831445896957731E-31, 1.000000000000000000, 1.224646799147352961E-16 ) ) ;
#95 = LOCAL_TIME ( 15, 47, 16.00000000000000000, #68 ) ;
#96 = CYLINDRICAL_SURFACE ( 'NONE', #107, 0.2735000000000000209 ) ;
#97 = CARTESIAN_POINT ( 'NONE',  ( 3.491481338843132862E-16, -1.224646799147352653E-17, 0.09999999999999997780 ) ) ;
#98 = APPROVAL_DATE_TIME ( #119, #251 ) ;
#99 = ORIENTED_EDGE ( 'NONE', *, *, #50, .F. ) ;
#100 = PERSON_AND_ORGANIZATION ( #208, #145 ) ;
#101 = EDGE_LOOP ( 'NONE', ( #249 ) ) ;
#102 = CARTESIAN_POINT ( 'NONE',  ( 1.326762908760390423E-13, -4.653657836759941152E-15, 38.00000000000000000 ) ) ;
#103 = CALENDAR_DATE ( 2021, 26, 11 ) ;
#104 = DIRECTION ( 'NONE',  ( -3.491481338843133355E-15, 1.224646799147352961E-16, -1.000000000000000000 ) ) ;
#105 = FACE_BOUND ( 'NONE', #185, .T. ) ;
#106 = CARTESIAN_POINT ( 'NONE',  ( 3.491481338843132862E-16, -1.224646799147352653E-17, 0.09999999999999997780 ) ) ;
#107 = AXIS2_PLACEMENT_3D ( 'NONE', #69, #45, #20 ) ;
#108 = FACE_OUTER_BOUND ( 'NONE', #243, .T. ) ;
#109 = CARTESIAN_POINT ( 'NONE',  ( 2.094888803305880013E-14, 0.2734999999999994102, 6.000000000000000000 ) ) ;
#110 = DIRECTION ( 'NONE',  ( 3.491481338843133355E-15, -1.224646799147352961E-16, 1.000000000000000000 ) ) ;
#111 = DIRECTION ( 'NONE',  ( -4.275831445896957731E-31, -1.000000000000000000, -1.224646799147352961E-16 ) ) ;
#112 = PRODUCT_DEFINITION_SHAPE ( 'NONE', 'NONE',  #271 ) ;
#113 = DIRECTION ( 'NONE',  ( -3.491481338843133355E-15, 1.224646799147352961E-16, -1.000000000000000000 ) ) ;
#114 = FACE_OUTER_BOUND ( 'NONE', #15, .T. ) ;
#115 = DIRECTION ( 'NONE',  ( 0.0000000000000000000, 1.000000000000000000, 0.0000000000000000000 ) ) ;
#116 = EDGE_CURVE ( 'NONE', #90, #90, #275, .T. ) ;
#117 = EDGE_LOOP ( 'NONE', ( #266 ) ) ;
#118 = PERSON_AND_ORGANIZATION_ROLE ( 'design_owner' ) ;
#119 = DATE_AND_TIME ( #184, #132 ) ;
#120 = PERSON_AND_ORGANIZATION_ROLE ( 'creator' ) ;
#121 = APPROVAL_STATUS ( 'not_yet_approved' ) ;
#122 = LOCAL_TIME ( 15, 47, 16.00000000000000000, #227 ) ;
#123 = UNCERTAINTY_MEASURE_WITH_UNIT (LENGTH_MEASURE( 1.000000000000000082E-05 ), #139, 'distance_accuracy_value', 'NONE');
#124 = EDGE_LOOP ( 'NONE', ( #10 ) ) ;
#125 = CALENDAR_DATE ( 2021, 26, 11 ) ;
#126 = ADVANCED_FACE ( 'NONE', ( #61 ), #233, .F. ) ;
#127 = SECURITY_CLASSIFICATION_LEVEL ( 'unclassified' ) ;
#128 = CLOSED_SHELL ( 'NONE', ( #217, #246, #2, #279 ) ) ;
#129 = AXIS2_PLACEMENT_3D ( 'NONE', #24, #200, #1 ) ;
#130 = DIRECTION ( 'NONE',  ( 4.400110347983114743E-31, 1.000000000000000000, 1.224646799147352961E-16 ) ) ;
#131 = CARTESIAN_POINT ( 'NONE',  ( 2.094888803305880013E-14, -7.347880794884118750E-16, 6.000000000000000000 ) ) ;
#132 = LOCAL_TIME ( 15, 47, 16.00000000000000000, #5 ) ;
#133 = AXIS2_PLACEMENT_3D ( 'NONE', #102, #104, #230 ) ;
#134 = VERTEX_POINT ( 'NONE', #278 ) ;
#135 = APPROVAL_DATE_TIME ( #239, #138 ) ;
#136 = CARTESIAN_POINT ( 'NONE',  ( 1.326762908760390423E-13, 8.998558695971099120E-33, 38.00000000000000000 ) ) ;
#137 = AXIS2_PLACEMENT_3D ( 'NONE', #189, #168, #111 ) ;
#138 = APPROVAL ( #172, 'UNSPECIFIED' ) ;
#139 =( LENGTH_UNIT ( ) NAMED_UNIT ( * ) SI_UNIT ( .MILLI., .METRE. ) );
#140 =( NAMED_UNIT ( * ) PLANE_ANGLE_UNIT ( ) SI_UNIT ( $, .RADIAN. ) );
#141 = CC_DESIGN_PERSON_AND_ORGANIZATION_ASSIGNMENT ( #159, #120, ( #28 ) ) ;
#142 = DATE_TIME_ROLE ( 'classification_date' ) ;
#143 = CIRCLE ( 'NONE', #7, 0.2735000000000001874 ) ;
#144 = PERSON_AND_ORGANIZATION ( #208, #145 ) ;
#145 = ORGANIZATION ( 'UNSPECIFIED', 'UNSPECIFIED', '' ) ;
#146 = ORIENTED_EDGE ( 'NONE', *, *, #72, .F. ) ;
#147 = CARTESIAN_POINT ( 'NONE',  ( 0.0000000000000000000, 0.0000000000000000000, 0.0000000000000000000 ) ) ;
#148 = AXIS2_PLACEMENT_3D ( 'NONE', #199, #18, #94 ) ;
#149 = CYLINDRICAL_SURFACE ( 'NONE', #241, 1.500000000000000000 ) ;
#150 = CARTESIAN_POINT ( 'NONE',  ( 3.491481338843133848E-16, 0.2734999999999992992, 0.1000000000000000056 ) ) ;
#151 = CONICAL_SURFACE ( 'NONE', #23, 1.499999999999996891, 0.1745329251994260644 ) ;
#152 = VERTEX_POINT ( 'NONE', #150 ) ;
#153 = CALENDAR_DATE ( 2021, 26, 11 ) ;
#154 = AXIS2_PLACEMENT_3D ( 'NONE', #97, #259, #220 ) ;
#155 =( NAMED_UNIT ( * ) SI_UNIT ( $, .STERADIAN. ) SOLID_ANGLE_UNIT ( ) );
#156 = APPROVAL_PERSON_ORGANIZATION ( #202, #138, #257 ) ;
#157 = EDGE_CURVE ( 'NONE', #236, #236, #176, .T. ) ;
#158 = CARTESIAN_POINT ( 'NONE',  ( 1.316288464743861212E-13, -4.616918432785520292E-15, 37.69999999999999574 ) ) ;
#159 = PERSON_AND_ORGANIZATION ( #208, #145 ) ;
#160 = CC_DESIGN_APPROVAL ( #138, ( #271 ) ) ;
#161 = CC_DESIGN_PERSON_AND_ORGANIZATION_ASSIGNMENT ( #174, #44, ( #271 ) ) ;
#162 = ORIENTED_EDGE ( 'NONE', *, *, #237, .F. ) ;
#163 = PLANE ( 'NONE',  #137 ) ;
#164 = DIRECTION ( 'NONE',  ( -3.491481338843133355E-15, 1.224646799147352961E-16, -1.000000000000000000 ) ) ;
#165 = FACE_OUTER_BOUND ( 'NONE', #117, .T. ) ;
#166 = CONICAL_SURFACE ( 'NONE', #42, 0.2734999999999992992, 0.5235987755982925984 ) ;
#167 = CARTESIAN_POINT ( 'NONE',  ( 1.396592535537253342E-14, -4.898587196589411843E-16, 4.000000000000000000 ) ) ;
#168 = DIRECTION ( 'NONE',  ( 3.491481338843133355E-15, -1.224646799147352961E-16, 1.000000000000000000 ) ) ;
#169 = EDGE_CURVE ( 'NONE', #152, #152, #71, .T. ) ;
#170 = CARTESIAN_POINT ( 'NONE',  ( 1.326762908760390423E-13, 1.199999999999998845, 38.00000000000000000 ) ) ;
#171 = CLOSED_SHELL ( 'NONE', ( #27, #191, #78, #92, #14, #235, #126 ) ) ;
#172 = APPROVAL_STATUS ( 'not_yet_approved' ) ;
#173 = CC_DESIGN_PERSON_AND_ORGANIZATION_ASSIGNMENT ( #22, #118, ( #19 ) ) ;
#174 = PERSON_AND_ORGANIZATION ( #208, #145 ) ;
#175 = DIRECTION ( 'NONE',  ( -3.491481338843133355E-15, 1.224646799147352961E-16, -1.000000000000000000 ) ) ;
#176 = CIRCLE ( 'NONE', #148, 0.2157649730810375366 ) ;
#177 = CARTESIAN_POINT ( 'NONE',  ( -4.612873284115054309E-32, 1.617978145670291377E-33, -1.321179418259036981E-17 ) ) ;
#178 = APPROVAL ( #30, 'UNSPECIFIED' ) ;
#179 = MANIFOLD_SOLID_BREP ( 'Corps-Déplacer/Copier1[1]', #171 ) ;
#180 = AXIS2_PLACEMENT_3D ( 'NONE', #177, #74, #221 ) ;
#181 = EDGE_LOOP ( 'NONE', ( #37 ) ) ;
#182 = DATE_AND_TIME ( #248, #197 ) ;
#183 = EDGE_LOOP ( 'NONE', ( #228 ) ) ;
#184 = CALENDAR_DATE ( 2021, 26, 11 ) ;
#185 = EDGE_LOOP ( 'NONE', ( #225 ) ) ;
#186 = EDGE_CURVE ( 'NONE', #234, #234, #196, .T. ) ;
#187 = CC_DESIGN_APPROVAL ( #251, ( #79 ) ) ;
#188 = DIRECTION ( 'NONE',  ( -4.275831445896957731E-31, -1.000000000000000000, -1.224646799147352961E-16 ) ) ;
#189 = CARTESIAN_POINT ( 'NONE',  ( 1.396592535537253342E-14, 2.050921502790081096E-33, 4.000000000000000000 ) ) ;
#190 = CARTESIAN_POINT ( 'NONE',  ( 4.584595880177421465E-14, -1.608059767520834394E-15, 13.13080447881322677 ) ) ;
#191 = ADVANCED_FACE ( 'NONE', ( #21, #264 ), #96, .T. ) ;
#192 = DIRECTION ( 'NONE',  ( -3.491481338843133355E-15, 1.224646799147352961E-16, -1.000000000000000000 ) ) ;
#193 = DIRECTION ( 'NONE',  ( 0.0000000000000000000, -1.000000000000000000, 0.0000000000000000000 ) ) ;
#194 = FACE_OUTER_BOUND ( 'NONE', #4, .T. ) ;
#195 = FACE_OUTER_BOUND ( 'NONE', #6, .T. ) ;
#196 = CIRCLE ( 'NONE', #209, 1.500000000000003331 ) ;
#197 = LOCAL_TIME ( 15, 47, 16.00000000000000000, #267 ) ;
#198 = DIRECTION ( 'NONE',  ( 1.000000000000000000, 0.0000000000000000000, 0.0000000000000000000 ) ) ;
#199 = CARTESIAN_POINT ( 'NONE',  ( -9.225746568230108618E-32, 3.235956291340582754E-33, -2.642358836518073961E-17 ) ) ;
#200 = DIRECTION ( 'NONE',  ( -3.491481338843133355E-15, 1.224646799147352961E-16, -1.000000000000000000 ) ) ;
#201 = ADVANCED_BREP_SHAPE_REPRESENTATION ( '200005', ( #179, #272, #75 ), #262 ) ;
#202 = PERSON_AND_ORGANIZATION ( #208, #145 ) ;
#203 = PLANE ( 'NONE',  #180 ) ;
#204 = PERSON_AND_ORGANIZATION ( #208, #145 ) ;
#205 = PERSON_AND_ORGANIZATION_ROLE ( 'classification_officer' ) ;
#206 = DESIGN_CONTEXT ( 'detailed design', #43, 'design' ) ;
#207 = PRODUCT_RELATED_PRODUCT_CATEGORY ( 'detail', '', ( #19 ) ) ;
#208 = PERSON ( 'UNSPECIFIED', 'UNSPECIFIED', 'UNSPECIFIED', ('UNSPECIFIED'), ('UNSPECIFIED'), ('UNSPECIFIED') ) ;
#209 = AXIS2_PLACEMENT_3D ( 'NONE', #158, #175, #115 ) ;
#210 = ORIENTED_EDGE ( 'NONE', *, *, #157, .F. ) ;
#211 = FACE_OUTER_BOUND ( 'NONE', #270, .T. ) ;
#212 = CARTESIAN_POINT ( 'NONE',  ( 1.396592535537253342E-14, 2.050921502790081096E-33, 4.000000000000000000 ) ) ;
#213 = DIRECTION ( 'NONE',  ( -3.491481338843133355E-15, 1.224646799147352961E-16, -1.000000000000000000 ) ) ;
#214 = ORIENTED_EDGE ( 'NONE', *, *, #116, .T. ) ;
#215 = FACE_OUTER_BOUND ( 'NONE', #29, .T. ) ;
#216 = CARTESIAN_POINT ( 'NONE',  ( 4.584595880177421465E-14, 1.499999999999995559, 13.13080447881322677 ) ) ;
#217 = ADVANCED_FACE ( 'NONE', ( #114 ), #203, .F. ) ;
#218 = AXIS2_PLACEMENT_3D ( 'NONE', #212, #9, #188 ) ;
#219 = DIRECTION ( 'NONE',  ( 4.275831445896957731E-31, 1.000000000000000000, 1.224646799147352961E-16 ) ) ;
#220 = DIRECTION ( 'NONE',  ( 3.520895693578136923E-31, 1.000000000000000000, 9.910440333505550945E-17 ) ) ;
#221 = DIRECTION ( 'NONE',  ( -4.275831445896957731E-31, -1.000000000000000000, -1.224646799147352961E-16 ) ) ;
#222 = AXIS2_PLACEMENT_3D ( 'NONE', #136, #113, #219 ) ;
#223 = FACE_OUTER_BOUND ( 'NONE', #273, .T. ) ;
#224 = EDGE_CURVE ( 'NONE', #38, #38, #281, .T. ) ;
#225 = ORIENTED_EDGE ( 'NONE', *, *, #242, .F. ) ;
#226 = ORIENTED_EDGE ( 'NONE', *, *, #50, .T. ) ;
#227 = COORDINATED_UNIVERSAL_TIME_OFFSET ( 1, 0, .AHEAD. ) ;
#228 = ORIENTED_EDGE ( 'NONE', *, *, #242, .T. ) ;
#229 = DATE_TIME_ROLE ( 'creation_date' ) ;
#230 = DIRECTION ( 'NONE',  ( 0.0000000000000000000, 1.000000000000000000, 0.0000000000000000000 ) ) ;
#231 = PLANE ( 'NONE',  #218 ) ;
#232 = CARTESIAN_POINT ( 'NONE',  ( 1.316288464743861212E-13, 1.499999999999998668, 37.69999999999999574 ) ) ;
#233 = PLANE ( 'NONE',  #222 ) ;
#234 = VERTEX_POINT ( 'NONE', #232 ) ;
#235 = ADVANCED_FACE ( 'NONE', ( #223, #8 ), #261, .T. ) ;
#236 = VERTEX_POINT ( 'NONE', #65 ) ;
#237 = EDGE_CURVE ( 'NONE', #13, #13, #282, .T. ) ;
#238 = CC_DESIGN_SECURITY_CLASSIFICATION ( #79, ( #28 ) ) ;
#239 = DATE_AND_TIME ( #153, #95 ) ;
#240 = CARTESIAN_POINT ( 'NONE',  ( 0.0000000000000000000, 0.0000000000000000000, 0.0000000000000000000 ) ) ;
#241 = AXIS2_PLACEMENT_3D ( 'NONE', #56, #164, #31 ) ;
#242 = EDGE_CURVE ( 'NONE', #134, #134, #33, .T. ) ;
#243 = EDGE_LOOP ( 'NONE', ( #146 ) ) ;
#244 = DATE_AND_TIME ( #125, #88 ) ;
#245 = ORIENTED_EDGE ( 'NONE', *, *, #224, .F. ) ;
#246 = ADVANCED_FACE ( 'NONE', ( #283, #194 ), #166, .T. ) ;
#247 = EDGE_LOOP ( 'NONE', ( #245 ) ) ;
#248 = CALENDAR_DATE ( 2021, 26, 11 ) ;
#249 = ORIENTED_EDGE ( 'NONE', *, *, #116, .F. ) ;
#250 = CARTESIAN_POINT ( 'NONE',  ( 1.396592535537253342E-14, 0.2734999999999994102, 4.000000000000000000 ) ) ;
#251 = APPROVAL ( #121, 'UNSPECIFIED' ) ;
#252 = DIRECTION ( 'NONE',  ( -3.491481338843133355E-15, 1.224646799147352961E-16, -1.000000000000000000 ) ) ;
#253 = VERTEX_POINT ( 'NONE', #109 ) ;
#254 = DIRECTION ( 'NONE',  ( 3.491481338843133355E-15, -1.224646799147352961E-16, 1.000000000000000000 ) ) ;
#255 = CARTESIAN_POINT ( 'NONE',  ( 1.326762908760390423E-13, -4.653657836759941152E-15, 38.00000000000000000 ) ) ;
#256 = AXIS2_PLACEMENT_3D ( 'NONE', #255, #66, #280 ) ;
#257 = APPROVAL_ROLE ( '' ) ;
#258 = FACE_OUTER_BOUND ( 'NONE', #183, .T. ) ;
#259 = DIRECTION ( 'NONE',  ( -3.491481338843133355E-15, 1.224646799147352961E-16, -1.000000000000000000 ) ) ;
#260 = CC_DESIGN_DATE_AND_TIME_ASSIGNMENT ( #49, #142, ( #79 ) ) ;
#261 = CONICAL_SURFACE ( 'NONE', #133, 1.200000000000003286, 0.7853981633974453924 ) ;
#262 =( GEOMETRIC_REPRESENTATION_CONTEXT ( 3 ) GLOBAL_UNCERTAINTY_ASSIGNED_CONTEXT ( ( #123 ) ) GLOBAL_UNIT_ASSIGNED_CONTEXT ( ( #139, #140, #155 ) ) REPRESENTATION_CONTEXT ( 'NONE', 'WORKASPACE' ) );
#263 = APPLICATION_PROTOCOL_DEFINITION ( 'international standard', 'config_control_design', 1994, #54 ) ;
#264 = FACE_OUTER_BOUND ( 'NONE', #51, .T. ) ;
#265 = AXIS2_PLACEMENT_3D ( 'NONE', #86, #277, #130 ) ;
#266 = ORIENTED_EDGE ( 'NONE', *, *, #169, .F. ) ;
#267 = COORDINATED_UNIVERSAL_TIME_OFFSET ( 1, 0, .AHEAD. ) ;
#268 = EDGE_LOOP ( 'NONE', ( #214 ) ) ;
#269 = SHAPE_DEFINITION_REPRESENTATION ( #112, #201 ) ;
#270 = EDGE_LOOP ( 'NONE', ( #55 ) ) ;
#271 = PRODUCT_DEFINITION ( 'UNKNOWN', '', #28, #206 ) ;
#272 = MANIFOLD_SOLID_BREP ( 'Corps-Déplacer/Copier1[2]', #128 ) ;
#273 = EDGE_LOOP ( 'NONE', ( #48 ) ) ;
#274 = CYLINDRICAL_SURFACE ( 'NONE', #58, 0.2734999999999995213 ) ;
#275 = CIRCLE ( 'NONE', #256, 1.200000000000003286 ) ;
#276 = EDGE_LOOP ( 'NONE', ( #210 ) ) ;
#277 = DIRECTION ( 'NONE',  ( -3.491481338843133355E-15, 1.224646799147352961E-16, -1.000000000000000000 ) ) ;
#278 = CARTESIAN_POINT ( 'NONE',  ( 2.216146677675516400E-14, 0.3038844939755807606, 6.347296355333847728 ) ) ;
#279 = ADVANCED_FACE ( 'NONE', ( #215 ), #163, .T. ) ;
#280 = DIRECTION ( 'NONE',  ( 0.0000000000000000000, 1.000000000000000000, 0.0000000000000000000 ) ) ;
#281 = CIRCLE ( 'NONE', #129, 0.2734999999999998543 ) ;
#282 = CIRCLE ( 'NONE', #53, 0.2734999999999998543 ) ;
#283 = FACE_BOUND ( 'NONE', #276, .T. ) ;
ENDSEC;
END-ISO-10303-21;
