ISO-10303-21;
HEADER;
FILE_DESCRIPTION (( 'STEP AP203' ),
    '1' );
FILE_NAME ('200004.step',
    '2021-11-26T14:47:16',
    ( '' ),
    ( '' ),
    'SwSTEP 2.0',
    'SolidWorks 2019',
    '' );
FILE_SCHEMA (( 'CONFIG_CONTROL_DESIGN' ));
ENDSEC;

DATA;
#1 = SHAPE_DEFINITION_REPRESENTATION ( #213, #112 ) ;
#2 = APPLICATION_PROTOCOL_DEFINITION ( 'international standard', 'config_control_design', 1994, #41 ) ;
#3 = DIRECTION ( 'NONE',  ( -3.491481338843133355E-15, 1.224646799147352961E-16, -1.000000000000000000 ) ) ;
#4 = SECURITY_CLASSIFICATION ( '', '', #173 ) ;
#5 = ADVANCED_FACE ( 'NONE', ( #30, #269 ), #25, .T. ) ;
#6 = AXIS2_PLACEMENT_3D ( 'NONE', #209, #118, #258 ) ;
#7 = EDGE_CURVE ( 'NONE', #62, #62, #116, .T. ) ;
#8 = CARTESIAN_POINT ( 'NONE',  ( 1.326762908760390423E-13, -4.653657836759941152E-15, 38.00000000000000000 ) ) ;
#9 = CARTESIAN_POINT ( 'NONE',  ( 1.396592535537253342E-14, -4.898587196589411843E-16, 4.000000000000000000 ) ) ;
#10 = PERSON_AND_ORGANIZATION ( #242, #38 ) ;
#11 = PERSON_AND_ORGANIZATION ( #242, #38 ) ;
#12 = CARTESIAN_POINT ( 'NONE',  ( 1.326762908760390423E-13, 1.199999999999998845, 38.00000000000000000 ) ) ;
#13 = PERSON_AND_ORGANIZATION_ROLE ( 'creator' ) ;
#14 = CARTESIAN_POINT ( 'NONE',  ( 1.396592535537253342E-14, 0.2684999999999991838, 4.000000000000000000 ) ) ;
#15 = DIRECTION ( 'NONE',  ( 4.275831445896957731E-31, 1.000000000000000000, 1.224646799147352961E-16 ) ) ;
#16 = ADVANCED_FACE ( 'NONE', ( #207 ), #48, .T. ) ;
#17 = AXIS2_PLACEMENT_3D ( 'NONE', #138, #157, #178 ) ;
#18 = FACE_OUTER_BOUND ( 'NONE', #251, .T. ) ;
#19 = PRODUCT_DEFINITION ( 'UNKNOWN', '', #196, #250 ) ;
#20 = DIRECTION ( 'NONE',  ( 0.0000000000000000000, 0.0000000000000000000, 1.000000000000000000 ) ) ;
#21 = CALENDAR_DATE ( 2021, 26, 11 ) ;
#22 = PERSON_AND_ORGANIZATION_ROLE ( 'design_owner' ) ;
#23 = ORIENTED_EDGE ( 'NONE', *, *, #219, .F. ) ;
#24 = EDGE_LOOP ( 'NONE', ( #66 ) ) ;
#25 = CONICAL_SURFACE ( 'NONE', #264, 1.200000000000003286, 0.7853981633974453924 ) ;
#26 = DIRECTION ( 'NONE',  ( -3.491481338843133355E-15, 1.224646799147352961E-16, -1.000000000000000000 ) ) ;
#27 = CC_DESIGN_PERSON_AND_ORGANIZATION_ASSIGNMENT ( #257, #225, ( #4 ) ) ;
#28 = LOCAL_TIME ( 15, 47, 16.00000000000000000, #109 ) ;
#29 = AXIS2_PLACEMENT_3D ( 'NONE', #255, #35, #276 ) ;
#30 = FACE_OUTER_BOUND ( 'NONE', #24, .T. ) ;
#31 = APPROVAL_STATUS ( 'not_yet_approved' ) ;
#32 = FACE_OUTER_BOUND ( 'NONE', #266, .T. ) ;
#33 = DATE_AND_TIME ( #114, #28 ) ;
#34 = DIRECTION ( 'NONE',  ( -3.491481338843133355E-15, 1.224646799147352961E-16, -1.000000000000000000 ) ) ;
#35 = DIRECTION ( 'NONE',  ( -3.491481338843133355E-15, 1.224646799147352961E-16, -1.000000000000000000 ) ) ;
#36 = ADVANCED_FACE ( 'NONE', ( #100, #212 ), #271, .T. ) ;
#37 = CARTESIAN_POINT ( 'NONE',  ( 3.491481338843133355E-16, -1.224646799147352807E-17, 0.09999999999999999167 ) ) ;
#38 = ORGANIZATION ( 'UNSPECIFIED', 'UNSPECIFIED', '' ) ;
#39 = DIRECTION ( 'NONE',  ( 0.0000000000000000000, 1.000000000000000000, 0.0000000000000000000 ) ) ;
#40 = FACE_BOUND ( 'NONE', #227, .T. ) ;
#41 = APPLICATION_CONTEXT ( 'configuration controlled 3d designs of mechanical parts and assemblies' ) ;
#42 = ORIENTED_EDGE ( 'NONE', *, *, #179, .F. ) ;
#43 = EDGE_LOOP ( 'NONE', ( #233 ) ) ;
#44 = CIRCLE ( 'NONE', #17, 0.2684999999999999609 ) ;
#45 = COORDINATED_UNIVERSAL_TIME_OFFSET ( 1, 0, .AHEAD. ) ;
#46 = ADVANCED_FACE ( 'NONE', ( #73 ), #150, .F. ) ;
#47 = AXIS2_PLACEMENT_3D ( 'NONE', #50, #26, #166 ) ;
#48 = PLANE ( 'NONE',  #108 ) ;
#49 = PLANE ( 'NONE',  #6 ) ;
#50 = CARTESIAN_POINT ( 'NONE',  ( 0.0000000000000000000, 0.0000000000000000000, 0.0000000000000000000 ) ) ;
#51 = AXIS2_PLACEMENT_3D ( 'NONE', #195, #174, #115 ) ;
#52 = PERSON_AND_ORGANIZATION ( #242, #38 ) ;
#53 = FACE_OUTER_BOUND ( 'NONE', #123, .T. ) ;
#54 = APPLICATION_CONTEXT ( 'configuration controlled 3d designs of mechanical parts and assemblies' ) ;
#55 = DIRECTION ( 'NONE',  ( 0.0000000000000000000, -1.000000000000000000, 0.0000000000000000000 ) ) ;
#56 = AXIS2_PLACEMENT_3D ( 'NONE', #170, #177, #153 ) ;
#57 = PERSON_AND_ORGANIZATION_ROLE ( 'creator' ) ;
#58 = DIRECTION ( 'NONE',  ( -3.586461721391510689E-31, -1.000000000000000000, -1.009499229502334699E-16 ) ) ;
#59 = ADVANCED_FACE ( 'NONE', ( #53, #32 ), #131, .T. ) ;
#60 = COORDINATED_UNIVERSAL_TIME_OFFSET ( 1, 0, .AHEAD. ) ;
#61 = DIRECTION ( 'NONE',  ( 4.275831445896957731E-31, 1.000000000000000000, 1.224646799147353207E-16 ) ) ;
#62 = VERTEX_POINT ( 'NONE', #12 ) ;
#63 = VERTEX_POINT ( 'NONE', #280 ) ;
#64 = COORDINATED_UNIVERSAL_TIME_OFFSET ( 1, 0, .AHEAD. ) ;
#65 = FACE_OUTER_BOUND ( 'NONE', #126, .T. ) ;
#66 = ORIENTED_EDGE ( 'NONE', *, *, #78, .F. ) ;
#67 = ORIENTED_EDGE ( 'NONE', *, *, #7, .F. ) ;
#68 = MANIFOLD_SOLID_BREP ( 'Corps-Déplacer/Copier1[1]', #260 ) ;
#69 = CIRCLE ( 'NONE', #232, 0.2684999999999996834 ) ;
#70 = CARTESIAN_POINT ( 'NONE',  ( 3.491481338843134341E-16, 0.2684999999999992393, 0.1000000000000000194 ) ) ;
#71 = EDGE_LOOP ( 'NONE', ( #146 ) ) ;
#72 = CARTESIAN_POINT ( 'NONE',  ( 0.0000000000000000000, 0.0000000000000000000, 0.0000000000000000000 ) ) ;
#73 = FACE_OUTER_BOUND ( 'NONE', #148, .T. ) ;
#74 = CC_DESIGN_PERSON_AND_ORGANIZATION_ASSIGNMENT ( #141, #22, ( #211 ) ) ;
#75 = DIRECTION ( 'NONE',  ( 4.275831445896958607E-31, 1.000000000000000000, 1.224646799147353207E-16 ) ) ;
#76 = AXIS2_PLACEMENT_3D ( 'NONE', #72, #20, #205 ) ;
#77 = CALENDAR_DATE ( 2021, 26, 11 ) ;
#78 = EDGE_CURVE ( 'NONE', #238, #238, #92, .T. ) ;
#79 = DIRECTION ( 'NONE',  ( 3.491481338843133355E-15, -1.224646799147352961E-16, 1.000000000000000000 ) ) ;
#80 = CARTESIAN_POINT ( 'NONE',  ( 0.0000000000000000000, 0.0000000000000000000, 0.0000000000000000000 ) ) ;
#81 = APPROVAL_ROLE ( '' ) ;
#82 = CARTESIAN_POINT ( 'NONE',  ( 1.326762908760390423E-13, 8.998558695971099120E-33, 38.00000000000000000 ) ) ;
#83 = CC_DESIGN_PERSON_AND_ORGANIZATION_ASSIGNMENT ( #194, #273, ( #196 ) ) ;
#84 = CLOSED_SHELL ( 'NONE', ( #46, #226, #59, #16 ) ) ;
#85 = FACE_BOUND ( 'NONE', #247, .T. ) ;
#86 = VERTEX_POINT ( 'NONE', #224 ) ;
#87 = AXIS2_PLACEMENT_3D ( 'NONE', #248, #3, #98 ) ;
#88 = FACE_OUTER_BOUND ( 'NONE', #43, .T. ) ;
#89 = DIRECTION ( 'NONE',  ( -3.491481338843133355E-15, 1.224646799147352961E-16, -1.000000000000000000 ) ) ;
#90 = LOCAL_TIME ( 15, 47, 16.00000000000000000, #171 ) ;
#91 = ORIENTED_EDGE ( 'NONE', *, *, #133, .T. ) ;
#92 = CIRCLE ( 'NONE', #87, 1.500000000000003331 ) ;
#93 = ORIENTED_EDGE ( 'NONE', *, *, #230, .T. ) ;
#94 = DATE_TIME_ROLE ( 'classification_date' ) ;
#95 = EDGE_LOOP ( 'NONE', ( #267 ) ) ;
#96 = APPROVAL ( #202, 'UNSPECIFIED' ) ;
#97 = MECHANICAL_CONTEXT ( 'NONE', #41, 'mechanical' ) ;
#98 = DIRECTION ( 'NONE',  ( 0.0000000000000000000, 1.000000000000000000, 0.0000000000000000000 ) ) ;
#99 = LOCAL_TIME ( 15, 47, 16.00000000000000000, #45 ) ;
#100 = FACE_OUTER_BOUND ( 'NONE', #183, .T. ) ;
#101 = CONICAL_SURFACE ( 'NONE', #256, 0.2684999999999992393, 0.5235987755982922653 ) ;
#102 = DIRECTION ( 'NONE',  ( 0.0000000000000000000, 1.000000000000000000, 0.0000000000000000000 ) ) ;
#103 = DIRECTION ( 'NONE',  ( -3.491481338843133355E-15, 1.224646799147352961E-16, -1.000000000000000000 ) ) ;
#104 = APPROVAL_STATUS ( 'not_yet_approved' ) ;
#105 = APPROVAL ( #31, 'UNSPECIFIED' ) ;
#106 = CARTESIAN_POINT ( 'NONE',  ( 1.326762908760390423E-13, -4.653657836759941152E-15, 38.00000000000000000 ) ) ;
#107 = DIRECTION ( 'NONE',  ( -3.491481338843133355E-15, 1.224646799147352961E-16, -1.000000000000000000 ) ) ;
#108 = AXIS2_PLACEMENT_3D ( 'NONE', #168, #185, #130 ) ;
#109 = COORDINATED_UNIVERSAL_TIME_OFFSET ( 1, 0, .AHEAD. ) ;
#110 = CARTESIAN_POINT ( 'NONE',  ( 1.316288464743861212E-13, 1.499999999999998668, 37.69999999999999574 ) ) ;
#111 = VERTEX_POINT ( 'NONE', #277 ) ;
#112 = ADVANCED_BREP_SHAPE_REPRESENTATION ( '200004', ( #68, #261, #76 ), #154 ) ;
#113 = LOCAL_TIME ( 15, 47, 16.00000000000000000, #64 ) ;
#114 = CALENDAR_DATE ( 2021, 26, 11 ) ;
#115 = DIRECTION ( 'NONE',  ( 4.275831445896957731E-31, 1.000000000000000000, 1.224646799147352961E-16 ) ) ;
#116 = CIRCLE ( 'NONE', #190, 1.200000000000003286 ) ;
#117 = CIRCLE ( 'NONE', #51, 0.2107649730810375321 ) ;
#118 = DIRECTION ( 'NONE',  ( 3.491481338843133355E-15, -1.224646799147352961E-16, 1.000000000000000000 ) ) ;
#119 = CALENDAR_DATE ( 2021, 26, 11 ) ;
#120 = VERTEX_POINT ( 'NONE', #70 ) ;
#121 = EDGE_LOOP ( 'NONE', ( #91 ) ) ;
#122 = ADVANCED_FACE ( 'NONE', ( #128 ), #49, .F. ) ;
#123 = EDGE_LOOP ( 'NONE', ( #23 ) ) ;
#124 = APPLICATION_PROTOCOL_DEFINITION ( 'international standard', 'config_control_design', 1994, #54 ) ;
#125 =( NAMED_UNIT ( * ) PLANE_ANGLE_UNIT ( ) SI_UNIT ( $, .RADIAN. ) );
#126 = EDGE_LOOP ( 'NONE', ( #229 ) ) ;
#127 = DIRECTION ( 'NONE',  ( -4.275831445896957731E-31, -1.000000000000000000, -1.224646799147352961E-16 ) ) ;
#128 = FACE_OUTER_BOUND ( 'NONE', #121, .T. ) ;
#129 = CARTESIAN_POINT ( 'NONE',  ( -6.871897280946583255E-32, 2.410337101205607421E-33, -1.968189606083793490E-17 ) ) ;
#130 = DIRECTION ( 'NONE',  ( -4.275831445896957731E-31, -1.000000000000000000, -1.224646799147352961E-16 ) ) ;
#131 = CYLINDRICAL_SURFACE ( 'NONE', #167, 0.2684999999999994613 ) ;
#132 = LOCAL_TIME ( 15, 47, 16.00000000000000000, #60 ) ;
#133 = EDGE_CURVE ( 'NONE', #193, #193, #163, .T. ) ;
#134 = FACE_OUTER_BOUND ( 'NONE', #180, .T. ) ;
#135 = DATE_AND_TIME ( #155, #90 ) ;
#136 = DIRECTION ( 'NONE',  ( 3.491481338843133355E-15, -1.224646799147352961E-16, 1.000000000000000000 ) ) ;
#137 = DIRECTION ( 'NONE',  ( 3.586461721391510689E-31, 1.000000000000000000, 1.009499229502334699E-16 ) ) ;
#138 = CARTESIAN_POINT ( 'NONE',  ( 2.094888803305880013E-14, -7.347880794884118750E-16, 6.000000000000000000 ) ) ;
#139 = DATE_AND_TIME ( #21, #113 ) ;
#140 = EDGE_LOOP ( 'NONE', ( #283 ) ) ;
#141 = PERSON_AND_ORGANIZATION ( #242, #38 ) ;
#142 = CC_DESIGN_APPROVAL ( #253, ( #19 ) ) ;
#143 = APPROVAL_DATE_TIME ( #139, #96 ) ;
#144 = CC_DESIGN_PERSON_AND_ORGANIZATION_ASSIGNMENT ( #218, #13, ( #196 ) ) ;
#145 = AXIS2_PLACEMENT_3D ( 'NONE', #223, #239, #279 ) ;
#146 = ORIENTED_EDGE ( 'NONE', *, *, #219, .T. ) ;
#147 = ORIENTED_EDGE ( 'NONE', *, *, #245, .T. ) ;
#148 = EDGE_LOOP ( 'NONE', ( #147 ) ) ;
#149 = CARTESIAN_POINT ( 'NONE',  ( 0.0000000000000000000, 0.0000000000000000000, 0.0000000000000000000 ) ) ;
#150 = PLANE ( 'NONE',  #236 ) ;
#151 = AXIS2_PLACEMENT_3D ( 'NONE', #37, #89, #137 ) ;
#152 = APPROVAL_DATE_TIME ( #33, #253 ) ;
#153 = DIRECTION ( 'NONE',  ( 0.0000000000000000000, 1.000000000000000000, 0.0000000000000000000 ) ) ;
#154 =( GEOMETRIC_REPRESENTATION_CONTEXT ( 3 ) GLOBAL_UNCERTAINTY_ASSIGNED_CONTEXT ( ( #188 ) ) GLOBAL_UNIT_ASSIGNED_CONTEXT ( ( #165, #125, #262 ) ) REPRESENTATION_CONTEXT ( 'NONE', 'WORKASPACE' ) );
#155 = CALENDAR_DATE ( 2021, 26, 11 ) ;
#156 = CYLINDRICAL_SURFACE ( 'NONE', #254, 1.500000000000000000 ) ;
#157 = DIRECTION ( 'NONE',  ( -3.491481338843133355E-15, 1.224646799147352961E-16, -1.000000000000000000 ) ) ;
#158 = ADVANCED_FACE ( 'NONE', ( #65, #221 ), #246, .F. ) ;
#159 = DIRECTION ( 'NONE',  ( -3.491481338843133355E-15, 1.224646799147352961E-16, -1.000000000000000000 ) ) ;
#160 = DATE_AND_TIME ( #119, #99 ) ;
#161 = EDGE_LOOP ( 'NONE', ( #164 ) ) ;
#162 = APPROVAL_PERSON_ORGANIZATION ( #10, #253, #234 ) ;
#163 = CIRCLE ( 'NONE', #145, 0.2684999999999996834 ) ;
#164 = ORIENTED_EDGE ( 'NONE', *, *, #249, .T. ) ;
#165 =( LENGTH_UNIT ( ) NAMED_UNIT ( * ) SI_UNIT ( .MILLI., .METRE. ) );
#166 = DIRECTION ( 'NONE',  ( 4.275831445896957731E-31, 1.000000000000000000, 1.224646799147352961E-16 ) ) ;
#167 = AXIS2_PLACEMENT_3D ( 'NONE', #149, #186, #75 ) ;
#168 = CARTESIAN_POINT ( 'NONE',  ( 1.396592535537253342E-14, 2.013427508223533356E-33, 4.000000000000000000 ) ) ;
#169 = ADVANCED_FACE ( 'NONE', ( #134 ), #252, .F. ) ;
#170 = CARTESIAN_POINT ( 'NONE',  ( 2.216146677675516400E-14, -7.773196164799256863E-16, 6.347296355333847728 ) ) ;
#171 = COORDINATED_UNIVERSAL_TIME_OFFSET ( 1, 0, .AHEAD. ) ;
#172 = CARTESIAN_POINT ( 'NONE',  ( 4.594496467497680529E-14, -1.611532426084563380E-15, 13.15916088791131777 ) ) ;
#173 = SECURITY_CLASSIFICATION_LEVEL ( 'unclassified' ) ;
#174 = DIRECTION ( 'NONE',  ( -3.491481338843133355E-15, 1.224646799147352961E-16, -1.000000000000000000 ) ) ;
#175 = AXIS2_PLACEMENT_3D ( 'NONE', #82, #107, #15 ) ;
#176 = ADVANCED_FACE ( 'NONE', ( #40, #18 ), #275, .T. ) ;
#177 = DIRECTION ( 'NONE',  ( -3.491481338843133355E-15, 1.224646799147352961E-16, -1.000000000000000000 ) ) ;
#178 = DIRECTION ( 'NONE',  ( 0.0000000000000000000, 1.000000000000000000, 0.0000000000000000000 ) ) ;
#179 = EDGE_CURVE ( 'NONE', #272, #272, #265, .T. ) ;
#180 = EDGE_LOOP ( 'NONE', ( #67 ) ) ;
#181 = APPROVAL_ROLE ( '' ) ;
#182 = ORIENTED_EDGE ( 'NONE', *, *, #282, .F. ) ;
#183 = EDGE_LOOP ( 'NONE', ( #243 ) ) ;
#184 = CIRCLE ( 'NONE', #151, 0.2684999999999992393 ) ;
#185 = DIRECTION ( 'NONE',  ( 3.491481338843133355E-15, -1.224646799147352961E-16, 1.000000000000000000 ) ) ;
#186 = DIRECTION ( 'NONE',  ( -3.491481338843133355E-15, 1.224646799147352961E-16, -1.000000000000000000 ) ) ;
#187 = CC_DESIGN_DATE_AND_TIME_ASSIGNMENT ( #192, #216, ( #19 ) ) ;
#188 = UNCERTAINTY_MEASURE_WITH_UNIT (LENGTH_MEASURE( 1.000000000000000082E-05 ), #165, 'distance_accuracy_value', 'NONE');
#189 = DIRECTION ( 'NONE',  ( -3.491481338843133355E-15, 1.224646799147352961E-16, -1.000000000000000000 ) ) ;
#190 = AXIS2_PLACEMENT_3D ( 'NONE', #8, #103, #102 ) ;
#191 = FACE_OUTER_BOUND ( 'NONE', #263, .T. ) ;
#192 = DATE_AND_TIME ( #77, #132 ) ;
#193 = VERTEX_POINT ( 'NONE', #14 ) ;
#194 = PERSON_AND_ORGANIZATION ( #242, #38 ) ;
#195 = CARTESIAN_POINT ( 'NONE',  ( -1.374379456189316651E-31, 4.820674202411214842E-33, -3.936379212167586979E-17 ) ) ;
#196 = PRODUCT_DEFINITION_FORMATION_WITH_SPECIFIED_SOURCE ( 'ANY', '', #211, .NOT_KNOWN. ) ;
#197 = AXIS2_PLACEMENT_3D ( 'NONE', #240, #220, #55 ) ;
#198 = DIRECTION ( 'NONE',  ( 0.0000000000000000000, 1.000000000000000000, 0.0000000000000000000 ) ) ;
#199 = CARTESIAN_POINT ( 'NONE',  ( 4.594496467497680529E-14, 1.499999999999995559, 13.15916088791131777 ) ) ;
#200 = APPROVAL_PERSON_ORGANIZATION ( #278, #96, #181 ) ;
#201 = EDGE_LOOP ( 'NONE', ( #231 ) ) ;
#202 = APPROVAL_STATUS ( 'not_yet_approved' ) ;
#203 = CC_DESIGN_SECURITY_CLASSIFICATION ( #4, ( #196 ) ) ;
#204 = ORIENTED_EDGE ( 'NONE', *, *, #179, .T. ) ;
#205 = DIRECTION ( 'NONE',  ( 1.000000000000000000, 0.0000000000000000000, 0.0000000000000000000 ) ) ;
#206 = CC_DESIGN_PERSON_AND_ORGANIZATION_ASSIGNMENT ( #52, #57, ( #19 ) ) ;
#207 = FACE_OUTER_BOUND ( 'NONE', #95, .T. ) ;
#208 = CC_DESIGN_APPROVAL ( #96, ( #4 ) ) ;
#209 = CARTESIAN_POINT ( 'NONE',  ( 1.396592535537253342E-14, 2.013427508223533356E-33, 4.000000000000000000 ) ) ;
#210 = AXIS2_PLACEMENT_3D ( 'NONE', #172, #214, #198 ) ;
#211 = PRODUCT ( '200004', '200004', '', ( #97 ) ) ;
#212 = FACE_OUTER_BOUND ( 'NONE', #161, .T. ) ;
#213 = PRODUCT_DEFINITION_SHAPE ( 'NONE', 'NONE',  #19 ) ;
#214 = DIRECTION ( 'NONE',  ( -3.491481338843133355E-15, 1.224646799147352961E-16, -1.000000000000000000 ) ) ;
#215 = VERTEX_POINT ( 'NONE', #259 ) ;
#216 = DATE_TIME_ROLE ( 'creation_date' ) ;
#217 = FACE_OUTER_BOUND ( 'NONE', #71, .T. ) ;
#218 = PERSON_AND_ORGANIZATION ( #242, #38 ) ;
#219 = EDGE_CURVE ( 'NONE', #120, #120, #184, .T. ) ;
#220 = DIRECTION ( 'NONE',  ( 3.491481338843133355E-15, -1.224646799147352961E-16, 1.000000000000000000 ) ) ;
#221 = FACE_OUTER_BOUND ( 'NONE', #201, .T. ) ;
#222 = CIRCLE ( 'NONE', #56, 0.2988844939755813668 ) ;
#223 = CARTESIAN_POINT ( 'NONE',  ( 1.396592535537253342E-14, -4.898587196589411843E-16, 4.000000000000000000 ) ) ;
#224 = CARTESIAN_POINT ( 'NONE',  ( -4.731839565957904486E-32, 0.2107649730810375321, -1.355252715606880851E-17 ) ) ;
#225 = PERSON_AND_ORGANIZATION_ROLE ( 'classification_officer' ) ;
#226 = ADVANCED_FACE ( 'NONE', ( #85, #217 ), #101, .T. ) ;
#227 = EDGE_LOOP ( 'NONE', ( #182 ) ) ;
#228 = CC_DESIGN_APPROVAL ( #105, ( #196 ) ) ;
#229 = ORIENTED_EDGE ( 'NONE', *, *, #249, .F. ) ;
#230 = EDGE_CURVE ( 'NONE', #111, #111, #69, .T. ) ;
#231 = ORIENTED_EDGE ( 'NONE', *, *, #282, .T. ) ;
#232 = AXIS2_PLACEMENT_3D ( 'NONE', #9, #34, #39 ) ;
#233 = ORIENTED_EDGE ( 'NONE', *, *, #78, .T. ) ;
#234 = APPROVAL_ROLE ( '' ) ;
#235 = APPROVAL_PERSON_ORGANIZATION ( #11, #105, #81 ) ;
#236 = AXIS2_PLACEMENT_3D ( 'NONE', #129, #79, #127 ) ;
#237 = APPROVAL_DATE_TIME ( #135, #105 ) ;
#238 = VERTEX_POINT ( 'NONE', #110 ) ;
#239 = DIRECTION ( 'NONE',  ( -3.491481338843133355E-15, 1.224646799147352961E-16, -1.000000000000000000 ) ) ;
#240 = CARTESIAN_POINT ( 'NONE',  ( 4.594496467497680529E-14, -1.611532426084563380E-15, 13.15916088791131777 ) ) ;
#241 = PRODUCT_RELATED_PRODUCT_CATEGORY ( 'detail', '', ( #211 ) ) ;
#242 = PERSON ( 'UNSPECIFIED', 'UNSPECIFIED', 'UNSPECIFIED', ('UNSPECIFIED'), ('UNSPECIFIED'), ('UNSPECIFIED') ) ;
#243 = ORIENTED_EDGE ( 'NONE', *, *, #133, .F. ) ;
#244 = ORIENTED_EDGE ( 'NONE', *, *, #245, .F. ) ;
#245 = EDGE_CURVE ( 'NONE', #86, #86, #117, .T. ) ;
#246 = TOROIDAL_SURFACE ( 'NONE', #29, 2.268499999999999961, 2.000000000000000000 ) ;
#247 = EDGE_LOOP ( 'NONE', ( #244 ) ) ;
#248 = CARTESIAN_POINT ( 'NONE',  ( 1.316288464743861212E-13, -4.616918432785520292E-15, 37.69999999999999574 ) ) ;
#249 = EDGE_CURVE ( 'NONE', #215, #215, #44, .T. ) ;
#250 = DESIGN_CONTEXT ( 'detailed design', #54, 'design' ) ;
#251 = EDGE_LOOP ( 'NONE', ( #204 ) ) ;
#252 = PLANE ( 'NONE',  #175 ) ;
#253 = APPROVAL ( #104, 'UNSPECIFIED' ) ;
#254 = AXIS2_PLACEMENT_3D ( 'NONE', #80, #159, #61 ) ;
#255 = CARTESIAN_POINT ( 'NONE',  ( 2.094888803305880013E-14, -8.673617379884035472E-16, 6.000000000000000000 ) ) ;
#256 = AXIS2_PLACEMENT_3D ( 'NONE', #274, #136, #58 ) ;
#257 = PERSON_AND_ORGANIZATION ( #242, #38 ) ;
#258 = DIRECTION ( 'NONE',  ( -4.275831445896957731E-31, -1.000000000000000000, -1.224646799147352961E-16 ) ) ;
#259 = CARTESIAN_POINT ( 'NONE',  ( 2.094888803305880013E-14, 0.2684999999999991838, 6.000000000000000000 ) ) ;
#260 = CLOSED_SHELL ( 'NONE', ( #122, #36, #158, #176, #270, #5, #169 ) ) ;
#261 = MANIFOLD_SOLID_BREP ( 'Corps-Déplacer/Copier1[2]', #84 ) ;
#262 =( NAMED_UNIT ( * ) SI_UNIT ( $, .STERADIAN. ) SOLID_ANGLE_UNIT ( ) );
#263 = EDGE_LOOP ( 'NONE', ( #42 ) ) ;
#264 = AXIS2_PLACEMENT_3D ( 'NONE', #106, #189, #268 ) ;
#265 = CIRCLE ( 'NONE', #210, 1.499999999999996891 ) ;
#266 = EDGE_LOOP ( 'NONE', ( #93 ) ) ;
#267 = ORIENTED_EDGE ( 'NONE', *, *, #230, .F. ) ;
#268 = DIRECTION ( 'NONE',  ( 0.0000000000000000000, 1.000000000000000000, 0.0000000000000000000 ) ) ;
#269 = FACE_BOUND ( 'NONE', #140, .T. ) ;
#270 = ADVANCED_FACE ( 'NONE', ( #191, #88 ), #156, .T. ) ;
#271 = CYLINDRICAL_SURFACE ( 'NONE', #47, 0.2684999999999998499 ) ;
#272 = VERTEX_POINT ( 'NONE', #199 ) ;
#273 = PERSON_AND_ORGANIZATION_ROLE ( 'design_supplier' ) ;
#274 = CARTESIAN_POINT ( 'NONE',  ( 3.491481338843133355E-16, -1.224646799147352807E-17, 0.09999999999999999167 ) ) ;
#275 = CONICAL_SURFACE ( 'NONE', #197, 1.499999999999996891, 0.1745329251994260367 ) ;
#276 = DIRECTION ( 'NONE',  ( 4.400255924768971076E-31, 1.000000000000000000, 1.224646799147352961E-16 ) ) ;
#277 = CARTESIAN_POINT ( 'NONE',  ( 1.396592535537253342E-14, 0.2684999999999991838, 4.000000000000000000 ) ) ;
#278 = PERSON_AND_ORGANIZATION ( #242, #38 ) ;
#279 = DIRECTION ( 'NONE',  ( 0.0000000000000000000, 1.000000000000000000, 0.0000000000000000000 ) ) ;
#280 = CARTESIAN_POINT ( 'NONE',  ( 2.216146677675516400E-14, 0.2988844939755806451, 6.347296355333847728 ) ) ;
#281 = CC_DESIGN_DATE_AND_TIME_ASSIGNMENT ( #160, #94, ( #4 ) ) ;
#282 = EDGE_CURVE ( 'NONE', #63, #63, #222, .T. ) ;
#283 = ORIENTED_EDGE ( 'NONE', *, *, #7, .T. ) ;
ENDSEC;
END-ISO-10303-21;
