ISO-10303-21;
HEADER;
FILE_DESCRIPTION (( 'STEP AP203' ),
    '1' );
FILE_NAME ('200003.step',
    '2021-11-26T14:47:15',
    ( '' ),
    ( '' ),
    'SwSTEP 2.0',
    'SolidWorks 2019',
    '' );
FILE_SCHEMA (( 'CONFIG_CONTROL_DESIGN' ));
ENDSEC;

DATA;
#1 = DIRECTION ( 'NONE',  ( 3.491481338843133355E-15, -1.224646799147352961E-16, 1.000000000000000000 ) ) ;
#2 = ORIENTED_EDGE ( 'NONE', *, *, #76, .F. ) ;
#3 = ORIENTED_EDGE ( 'NONE', *, *, #8, .F. ) ;
#4 = DIRECTION ( 'NONE',  ( 0.0000000000000000000, 1.000000000000000000, 0.0000000000000000000 ) ) ;
#5 = CARTESIAN_POINT ( 'NONE',  ( 1.396592535537253342E-14, 0.2934999999999990949, 4.000000000000000000 ) ) ;
#6 = ADVANCED_FACE ( 'NONE', ( #22 ), #70, .F. ) ;
#7 = PLANE ( 'NONE',  #130 ) ;
#8 = EDGE_CURVE ( 'NONE', #177, #177, #102, .T. ) ;
#9 = DIRECTION ( 'NONE',  ( 0.0000000000000000000, 1.000000000000000000, 0.0000000000000000000 ) ) ;
#10 = VERTEX_POINT ( 'NONE', #247 ) ;
#11 = UNCERTAINTY_MEASURE_WITH_UNIT (LENGTH_MEASURE( 1.000000000000000082E-05 ), #226, 'distance_accuracy_value', 'NONE');
#12 = CONICAL_SURFACE ( 'NONE', #164, 0.2934999999999992060, 0.5235987755982925984 ) ;
#13 = COORDINATED_UNIVERSAL_TIME_OFFSET ( 1, 0, .AHEAD. ) ;
#14 = COORDINATED_UNIVERSAL_TIME_OFFSET ( 1, 0, .AHEAD. ) ;
#15 =( GEOMETRIC_REPRESENTATION_CONTEXT ( 3 ) GLOBAL_UNCERTAINTY_ASSIGNED_CONTEXT ( ( #11 ) ) GLOBAL_UNIT_ASSIGNED_CONTEXT ( ( #226, #270, #74 ) ) REPRESENTATION_CONTEXT ( 'NONE', 'WORKASPACE' ) );
#16 = EDGE_CURVE ( 'NONE', #155, #155, #29, .T. ) ;
#17 = CIRCLE ( 'NONE', #53, 0.2934999999999998166 ) ;
#18 = PRODUCT_RELATED_PRODUCT_CATEGORY ( 'detail', '', ( #203 ) ) ;
#19 = DIRECTION ( 'NONE',  ( 4.275831445896957731E-31, 1.000000000000000000, 1.224646799147353207E-16 ) ) ;
#20 = CC_DESIGN_DATE_AND_TIME_ASSIGNMENT ( #157, #54, ( #122 ) ) ;
#21 = FACE_BOUND ( 'NONE', #107, .T. ) ;
#22 = FACE_OUTER_BOUND ( 'NONE', #242, .T. ) ;
#23 = CARTESIAN_POINT ( 'NONE',  ( -7.406376211683700015E-32, 2.597807074038338938E-33, -2.121270455977212301E-17 ) ) ;
#24 = DATE_AND_TIME ( #197, #245 ) ;
#25 = ORIENTED_EDGE ( 'NONE', *, *, #216, .F. ) ;
#26 = CARTESIAN_POINT ( 'NONE',  ( 0.0000000000000000000, 0.0000000000000000000, 0.0000000000000000000 ) ) ;
#27 = LOCAL_TIME ( 15, 47, 15.00000000000000000, #13 ) ;
#28 = APPROVAL_ROLE ( '' ) ;
#29 = CIRCLE ( 'NONE', #180, 0.2934999999999992060 ) ;
#30 = CARTESIAN_POINT ( 'NONE',  ( 2.094888803305880013E-14, -7.347880794884118750E-16, 6.000000000000000000 ) ) ;
#31 = DIRECTION ( 'NONE',  ( 3.491481338843133355E-15, -1.224646799147352961E-16, 1.000000000000000000 ) ) ;
#32 = APPROVAL ( #181, 'UNSPECIFIED' ) ;
#33 = VERTEX_POINT ( 'NONE', #248 ) ;
#34 = APPLICATION_PROTOCOL_DEFINITION ( 'international standard', 'config_control_design', 1994, #82 ) ;
#35 = PERSON_AND_ORGANIZATION ( #39, #60 ) ;
#36 = APPROVAL_PERSON_ORGANIZATION ( #207, #32, #251 ) ;
#37 = ADVANCED_FACE ( 'NONE', ( #21, #243 ), #12, .T. ) ;
#38 = DIRECTION ( 'NONE',  ( 1.000000000000000000, 0.0000000000000000000, 0.0000000000000000000 ) ) ;
#39 = PERSON ( 'UNSPECIFIED', 'UNSPECIFIED', 'UNSPECIFIED', ('UNSPECIFIED'), ('UNSPECIFIED'), ('UNSPECIFIED') ) ;
#40 = ORIENTED_EDGE ( 'NONE', *, *, #76, .T. ) ;
#41 = DIRECTION ( 'NONE',  ( -3.491481338843133355E-15, 1.224646799147352961E-16, -1.000000000000000000 ) ) ;
#42 = EDGE_LOOP ( 'NONE', ( #67 ) ) ;
#43 = TOROIDAL_SURFACE ( 'NONE', #68, 2.293499999999999872, 2.000000000000000000 ) ;
#44 = DIRECTION ( 'NONE',  ( -4.921456416662455856E-31, -1.000000000000000000, -1.385266830262573293E-16 ) ) ;
#45 = EDGE_LOOP ( 'NONE', ( #61 ) ) ;
#46 = EDGE_CURVE ( 'NONE', #50, #50, #151, .T. ) ;
#47 = DIRECTION ( 'NONE',  ( 0.0000000000000000000, 1.000000000000000000, 0.0000000000000000000 ) ) ;
#48 = CARTESIAN_POINT ( 'NONE',  ( 1.316288464743861212E-13, 1.499999999999998668, 37.69999999999999574 ) ) ;
#49 = AXIS2_PLACEMENT_3D ( 'NONE', #69, #190, #217 ) ;
#50 = VERTEX_POINT ( 'NONE', #152 ) ;
#51 = CARTESIAN_POINT ( 'NONE',  ( 4.544993530896388994E-14, 1.499999999999995559, 13.01737884242086807 ) ) ;
#52 = CARTESIAN_POINT ( 'NONE',  ( 1.326762908760390423E-13, -4.653657836759941152E-15, 38.00000000000000000 ) ) ;
#53 = AXIS2_PLACEMENT_3D ( 'NONE', #30, #134, #4 ) ;
#54 = DATE_TIME_ROLE ( 'creation_date' ) ;
#55 = CIRCLE ( 'NONE', #202, 1.499999999999996891 ) ;
#56 = PERSON_AND_ORGANIZATION ( #39, #60 ) ;
#57 = EDGE_CURVE ( 'NONE', #227, #227, #86, .T. ) ;
#58 = PERSON_AND_ORGANIZATION ( #39, #60 ) ;
#59 = DATE_AND_TIME ( #255, #188 ) ;
#60 = ORGANIZATION ( 'UNSPECIFIED', 'UNSPECIFIED', '' ) ;
#61 = ORIENTED_EDGE ( 'NONE', *, *, #57, .F. ) ;
#62 = CARTESIAN_POINT ( 'NONE',  ( 1.396592535537253342E-14, -4.898587196589411843E-16, 4.000000000000000000 ) ) ;
#63 = MANIFOLD_SOLID_BREP ( 'Corps-Déplacer/Copier1[2]', #139 ) ;
#64 = CARTESIAN_POINT ( 'NONE',  ( 4.544993530896388994E-14, -1.594169133265919239E-15, 13.01737884242086807 ) ) ;
#65 = APPROVAL_DATE_TIME ( #158, #32 ) ;
#66 = CARTESIAN_POINT ( 'NONE',  ( -1.481275242336740003E-31, 5.195614148076677875E-33, -4.242540911954424603E-17 ) ) ;
#67 = ORIENTED_EDGE ( 'NONE', *, *, #8, .T. ) ;
#68 = AXIS2_PLACEMENT_3D ( 'NONE', #220, #192, #283 ) ;
#69 = CARTESIAN_POINT ( 'NONE',  ( 1.396592535537253342E-14, -4.898587196589411843E-16, 4.000000000000000000 ) ) ;
#70 = PLANE ( 'NONE',  #257 ) ;
#71 = CARTESIAN_POINT ( 'NONE',  ( 2.094888803305880013E-14, 0.2934999999999990394, 6.000000000000000000 ) ) ;
#72 = CC_DESIGN_PERSON_AND_ORGANIZATION_ASSIGNMENT ( #35, #182, ( #122 ) ) ;
#73 = FACE_OUTER_BOUND ( 'NONE', #45, .T. ) ;
#74 =( NAMED_UNIT ( * ) SI_UNIT ( $, .STERADIAN. ) SOLID_ANGLE_UNIT ( ) );
#75 = SECURITY_CLASSIFICATION ( '', '', #104 ) ;
#76 = EDGE_CURVE ( 'NONE', #10, #10, #185, .T. ) ;
#77 = COORDINATED_UNIVERSAL_TIME_OFFSET ( 1, 0, .AHEAD. ) ;
#78 = CALENDAR_DATE ( 2021, 26, 11 ) ;
#79 = APPROVAL ( #126, 'UNSPECIFIED' ) ;
#80 = LOCAL_TIME ( 15, 47, 15.00000000000000000, #77 ) ;
#81 = AXIS2_PLACEMENT_3D ( 'NONE', #175, #174, #204 ) ;
#82 = APPLICATION_CONTEXT ( 'configuration controlled 3d designs of mechanical parts and assemblies' ) ;
#83 = COORDINATED_UNIVERSAL_TIME_OFFSET ( 1, 0, .AHEAD. ) ;
#84 = ADVANCED_BREP_SHAPE_REPRESENTATION ( '200003', ( #154, #63, #91 ), #15 ) ;
#85 = PLANE ( 'NONE',  #214 ) ;
#86 = CIRCLE ( 'NONE', #230, 1.500000000000003331 ) ;
#87 = EDGE_LOOP ( 'NONE', ( #144 ) ) ;
#88 = DIRECTION ( 'NONE',  ( 4.275831445896957731E-31, 1.000000000000000000, 1.224646799147353207E-16 ) ) ;
#89 = CARTESIAN_POINT ( 'NONE',  ( 3.491481338843132862E-16, -1.224646799147352653E-17, 0.09999999999999997780 ) ) ;
#90 = EDGE_LOOP ( 'NONE', ( #167 ) ) ;
#91 = AXIS2_PLACEMENT_3D ( 'NONE', #229, #274, #38 ) ;
#92 = FACE_OUTER_BOUND ( 'NONE', #127, .T. ) ;
#93 = DIRECTION ( 'NONE',  ( -3.491481338843133355E-15, 1.224646799147352961E-16, -1.000000000000000000 ) ) ;
#94 = DATE_TIME_ROLE ( 'classification_date' ) ;
#95 = CARTESIAN_POINT ( 'NONE',  ( 1.326762908760390423E-13, 1.199999999999998845, 38.00000000000000000 ) ) ;
#96 = CIRCLE ( 'NONE', #81, 1.200000000000003286 ) ;
#97 = CARTESIAN_POINT ( 'NONE',  ( 4.544993530896388994E-14, -1.594169133265919239E-15, 13.01737884242086807 ) ) ;
#98 = ADVANCED_FACE ( 'NONE', ( #168, #111 ), #160, .T. ) ;
#99 = DIRECTION ( 'NONE',  ( -3.491481338843133355E-15, 1.224646799147352961E-16, -1.000000000000000000 ) ) ;
#100 = APPROVAL_PERSON_ORGANIZATION ( #221, #79, #28 ) ;
#101 = CC_DESIGN_APPROVAL ( #32, ( #122 ) ) ;
#102 = CIRCLE ( 'NONE', #263, 0.2934999999999995945 ) ;
#103 = AXIS2_PLACEMENT_3D ( 'NONE', #125, #31, #271 ) ;
#104 = SECURITY_CLASSIFICATION_LEVEL ( 'unclassified' ) ;
#105 = EDGE_LOOP ( 'NONE', ( #146 ) ) ;
#106 = DIRECTION ( 'NONE',  ( 4.275831445896957731E-31, 1.000000000000000000, 1.224646799147352961E-16 ) ) ;
#107 = EDGE_LOOP ( 'NONE', ( #2 ) ) ;
#108 = DIRECTION ( 'NONE',  ( -3.491481338843133355E-15, 1.224646799147352961E-16, -1.000000000000000000 ) ) ;
#109 = ADVANCED_FACE ( 'NONE', ( #133 ), #85, .F. ) ;
#110 = CARTESIAN_POINT ( 'NONE',  ( 3.491481338843132862E-16, -1.224646799147352653E-17, 0.09999999999999997780 ) ) ;
#111 = FACE_OUTER_BOUND ( 'NONE', #105, .T. ) ;
#112 = EDGE_LOOP ( 'NONE', ( #40 ) ) ;
#113 = FACE_OUTER_BOUND ( 'NONE', #282, .T. ) ;
#114 = VERTEX_POINT ( 'NONE', #51 ) ;
#115 = FACE_BOUND ( 'NONE', #90, .T. ) ;
#116 = CC_DESIGN_SECURITY_CLASSIFICATION ( #75, ( #121 ) ) ;
#117 = AXIS2_PLACEMENT_3D ( 'NONE', #26, #41, #19 ) ;
#118 = VERTEX_POINT ( 'NONE', #71 ) ;
#119 = DIRECTION ( 'NONE',  ( 3.491481338843133355E-15, -1.224646799147352961E-16, 1.000000000000000000 ) ) ;
#120 = DESIGN_CONTEXT ( 'detailed design', #156, 'design' ) ;
#121 = PRODUCT_DEFINITION_FORMATION_WITH_SPECIFIED_SOURCE ( 'ANY', '', #203, .NOT_KNOWN. ) ;
#122 = PRODUCT_DEFINITION ( 'UNKNOWN', '', #121, #120 ) ;
#123 = CLOSED_SHELL ( 'NONE', ( #213, #161, #140, #98, #153, #269, #6 ) ) ;
#124 = FACE_OUTER_BOUND ( 'NONE', #87, .T. ) ;
#125 = CARTESIAN_POINT ( 'NONE',  ( 1.396592535537253342E-14, 2.200897481056265215E-33, 4.000000000000000000 ) ) ;
#126 = APPROVAL_STATUS ( 'not_yet_approved' ) ;
#127 = EDGE_LOOP ( 'NONE', ( #131 ) ) ;
#128 = CC_DESIGN_DATE_AND_TIME_ASSIGNMENT ( #59, #94, ( #75 ) ) ;
#129 = DIRECTION ( 'NONE',  ( 4.921456416662455856E-31, 1.000000000000000000, 1.385266830262573293E-16 ) ) ;
#130 = AXIS2_PLACEMENT_3D ( 'NONE', #150, #119, #178 ) ;
#131 = ORIENTED_EDGE ( 'NONE', *, *, #46, .F. ) ;
#132 = ORIENTED_EDGE ( 'NONE', *, *, #216, .T. ) ;
#133 = FACE_OUTER_BOUND ( 'NONE', #112, .T. ) ;
#134 = DIRECTION ( 'NONE',  ( -3.491481338843133355E-15, 1.224646799147352961E-16, -1.000000000000000000 ) ) ;
#135 = FACE_OUTER_BOUND ( 'NONE', #142, .T. ) ;
#136 = DIRECTION ( 'NONE',  ( 0.0000000000000000000, 1.000000000000000000, 0.0000000000000000000 ) ) ;
#137 = PERSON_AND_ORGANIZATION_ROLE ( 'design_owner' ) ;
#138 = CALENDAR_DATE ( 2021, 26, 11 ) ;
#139 = CLOSED_SHELL ( 'NONE', ( #109, #37, #224, #209 ) ) ;
#140 = ADVANCED_FACE ( 'NONE', ( #173, #143 ), #43, .F. ) ;
#141 = FACE_OUTER_BOUND ( 'NONE', #210, .T. ) ;
#142 = EDGE_LOOP ( 'NONE', ( #262 ) ) ;
#143 = FACE_OUTER_BOUND ( 'NONE', #260, .T. ) ;
#144 = ORIENTED_EDGE ( 'NONE', *, *, #57, .T. ) ;
#145 = CARTESIAN_POINT ( 'NONE',  ( 1.326762908760390423E-13, 8.998558695971099120E-33, 38.00000000000000000 ) ) ;
#146 = ORIENTED_EDGE ( 'NONE', *, *, #238, .T. ) ;
#147 = DIRECTION ( 'NONE',  ( -3.491481338843133355E-15, 1.224646799147352961E-16, -1.000000000000000000 ) ) ;
#148 = FACE_OUTER_BOUND ( 'NONE', #236, .T. ) ;
#149 = CC_DESIGN_APPROVAL ( #252, ( #121 ) ) ;
#150 = CARTESIAN_POINT ( 'NONE',  ( 1.396592535537253342E-14, 2.200897481056265215E-33, 4.000000000000000000 ) ) ;
#151 = CIRCLE ( 'NONE', #49, 0.2934999999999995945 ) ;
#152 = CARTESIAN_POINT ( 'NONE',  ( 1.396592535537253342E-14, 0.2934999999999990949, 4.000000000000000000 ) ) ;
#153 = ADVANCED_FACE ( 'NONE', ( #148, #124 ), #170, .T. ) ;
#154 = MANIFOLD_SOLID_BREP ( 'Corps-Déplacer/Copier1[1]', #123 ) ;
#155 = VERTEX_POINT ( 'NONE', #223 ) ;
#156 = APPLICATION_CONTEXT ( 'configuration controlled 3d designs of mechanical parts and assemblies' ) ;
#157 = DATE_AND_TIME ( #138, #80 ) ;
#158 = DATE_AND_TIME ( #78, #27 ) ;
#159 = DATE_AND_TIME ( #273, #222 ) ;
#160 = CONICAL_SURFACE ( 'NONE', #264, 1.499999999999996891, 0.1745329251994260367 ) ;
#161 = ADVANCED_FACE ( 'NONE', ( #92, #113 ), #171, .T. ) ;
#162 = EDGE_LOOP ( 'NONE', ( #189 ) ) ;
#163 = CONICAL_SURFACE ( 'NONE', #206, 1.200000000000003286, 0.7853981633974453924 ) ;
#164 = AXIS2_PLACEMENT_3D ( 'NONE', #110, #212, #44 ) ;
#165 = CC_DESIGN_PERSON_AND_ORGANIZATION_ASSIGNMENT ( #272, #137, ( #203 ) ) ;
#166 = DIRECTION ( 'NONE',  ( -3.491481338843133355E-15, 1.224646799147352961E-16, -1.000000000000000000 ) ) ;
#167 = ORIENTED_EDGE ( 'NONE', *, *, #249, .T. ) ;
#168 = FACE_BOUND ( 'NONE', #219, .T. ) ;
#169 = APPROVAL_DATE_TIME ( #24, #79 ) ;
#170 = CYLINDRICAL_SURFACE ( 'NONE', #117, 1.500000000000000000 ) ;
#171 = CYLINDRICAL_SURFACE ( 'NONE', #253, 0.2934999999999997056 ) ;
#172 = AXIS2_PLACEMENT_3D ( 'NONE', #187, #166, #258 ) ;
#173 = FACE_OUTER_BOUND ( 'NONE', #194, .T. ) ;
#174 = DIRECTION ( 'NONE',  ( -3.491481338843133355E-15, 1.224646799147352961E-16, -1.000000000000000000 ) ) ;
#175 = CARTESIAN_POINT ( 'NONE',  ( 1.326762908760390423E-13, -4.653657836759941152E-15, 38.00000000000000000 ) ) ;
#176 = CC_DESIGN_PERSON_AND_ORGANIZATION_ASSIGNMENT ( #186, #276, ( #75 ) ) ;
#177 = VERTEX_POINT ( 'NONE', #5 ) ;
#178 = DIRECTION ( 'NONE',  ( -4.275831445896957731E-31, -1.000000000000000000, -1.224646799147352961E-16 ) ) ;
#179 = VERTEX_POINT ( 'NONE', #95 ) ;
#180 = AXIS2_PLACEMENT_3D ( 'NONE', #89, #241, #129 ) ;
#181 = APPROVAL_STATUS ( 'not_yet_approved' ) ;
#182 = PERSON_AND_ORGANIZATION_ROLE ( 'creator' ) ;
#183 = EDGE_CURVE ( 'NONE', #33, #33, #275, .T. ) ;
#184 = APPROVAL_ROLE ( '' ) ;
#185 = CIRCLE ( 'NONE', #228, 0.2357649730810374711 ) ;
#186 = PERSON_AND_ORGANIZATION ( #39, #60 ) ;
#187 = CARTESIAN_POINT ( 'NONE',  ( 2.216146677675516400E-14, -7.773196164799256863E-16, 6.347296355333847728 ) ) ;
#188 = LOCAL_TIME ( 15, 47, 15.00000000000000000, #83 ) ;
#189 = ORIENTED_EDGE ( 'NONE', *, *, #46, .T. ) ;
#190 = DIRECTION ( 'NONE',  ( -3.491481338843133355E-15, 1.224646799147352961E-16, -1.000000000000000000 ) ) ;
#191 = DIRECTION ( 'NONE',  ( -4.275831445896957731E-31, -1.000000000000000000, -1.224646799147352961E-16 ) ) ;
#192 = DIRECTION ( 'NONE',  ( -3.491481338843133355E-15, 1.224646799147352961E-16, -1.000000000000000000 ) ) ;
#193 = SHAPE_DEFINITION_REPRESENTATION ( #205, #84 ) ;
#194 = EDGE_LOOP ( 'NONE', ( #25 ) ) ;
#195 = DIRECTION ( 'NONE',  ( 3.491481338843133355E-15, -1.224646799147352961E-16, 1.000000000000000000 ) ) ;
#196 = FACE_OUTER_BOUND ( 'NONE', #162, .T. ) ;
#197 = CALENDAR_DATE ( 2021, 26, 11 ) ;
#198 = CC_DESIGN_PERSON_AND_ORGANIZATION_ASSIGNMENT ( #58, #278, ( #121 ) ) ;
#199 = CYLINDRICAL_SURFACE ( 'NONE', #240, 0.2934999999999993725 ) ;
#200 = CC_DESIGN_APPROVAL ( #79, ( #75 ) ) ;
#201 = DIRECTION ( 'NONE',  ( 4.275831445896957731E-31, 1.000000000000000000, 1.224646799147352961E-16 ) ) ;
#202 = AXIS2_PLACEMENT_3D ( 'NONE', #97, #268, #9 ) ;
#203 = PRODUCT ( '200003', '200003', '', ( #211 ) ) ;
#204 = DIRECTION ( 'NONE',  ( 0.0000000000000000000, 1.000000000000000000, 0.0000000000000000000 ) ) ;
#205 = PRODUCT_DEFINITION_SHAPE ( 'NONE', 'NONE',  #122 ) ;
#206 = AXIS2_PLACEMENT_3D ( 'NONE', #52, #99, #136 ) ;
#207 = PERSON_AND_ORGANIZATION ( #39, #60 ) ;
#208 = APPROVAL_STATUS ( 'not_yet_approved' ) ;
#209 = ADVANCED_FACE ( 'NONE', ( #141 ), #234, .T. ) ;
#210 = EDGE_LOOP ( 'NONE', ( #3 ) ) ;
#211 = MECHANICAL_CONTEXT ( 'NONE', #82, 'mechanical' ) ;
#212 = DIRECTION ( 'NONE',  ( 3.491481338843133355E-15, -1.224646799147352961E-16, 1.000000000000000000 ) ) ;
#213 = ADVANCED_FACE ( 'NONE', ( #196 ), #7, .F. ) ;
#214 = AXIS2_PLACEMENT_3D ( 'NONE', #23, #1, #191 ) ;
#215 = CARTESIAN_POINT ( 'NONE',  ( 1.316288464743861212E-13, -4.616918432785520292E-15, 37.69999999999999574 ) ) ;
#216 = EDGE_CURVE ( 'NONE', #118, #118, #17, .T. ) ;
#217 = DIRECTION ( 'NONE',  ( 0.0000000000000000000, 1.000000000000000000, 0.0000000000000000000 ) ) ;
#218 = COORDINATED_UNIVERSAL_TIME_OFFSET ( 1, 0, .AHEAD. ) ;
#219 = EDGE_LOOP ( 'NONE', ( #256 ) ) ;
#220 = CARTESIAN_POINT ( 'NONE',  ( 2.094888803305880013E-14, -8.673617379884035472E-16, 6.000000000000000000 ) ) ;
#221 = PERSON_AND_ORGANIZATION ( #39, #60 ) ;
#222 = LOCAL_TIME ( 15, 47, 15.00000000000000000, #14 ) ;
#223 = CARTESIAN_POINT ( 'NONE',  ( 3.491481338843134341E-16, 0.2934999999999992060, 0.1000000000000000194 ) ) ;
#224 = ADVANCED_FACE ( 'NONE', ( #135, #246 ), #199, .T. ) ;
#225 = CARTESIAN_POINT ( 'NONE',  ( 0.0000000000000000000, 0.0000000000000000000, 0.0000000000000000000 ) ) ;
#226 =( LENGTH_UNIT ( ) NAMED_UNIT ( * ) SI_UNIT ( .MILLI., .METRE. ) );
#227 = VERTEX_POINT ( 'NONE', #48 ) ;
#228 = AXIS2_PLACEMENT_3D ( 'NONE', #66, #108, #88 ) ;
#229 = CARTESIAN_POINT ( 'NONE',  ( 0.0000000000000000000, 0.0000000000000000000, 0.0000000000000000000 ) ) ;
#230 = AXIS2_PLACEMENT_3D ( 'NONE', #215, #93, #261 ) ;
#231 = PERSON_AND_ORGANIZATION ( #39, #60 ) ;
#232 = PERSON_AND_ORGANIZATION_ROLE ( 'design_supplier' ) ;
#233 = ORIENTED_EDGE ( 'NONE', *, *, #238, .F. ) ;
#234 = PLANE ( 'NONE',  #103 ) ;
#235 = ORIENTED_EDGE ( 'NONE', *, *, #16, .T. ) ;
#236 = EDGE_LOOP ( 'NONE', ( #233 ) ) ;
#237 = APPROVAL_PERSON_ORGANIZATION ( #231, #252, #184 ) ;
#238 = EDGE_CURVE ( 'NONE', #114, #114, #55, .T. ) ;
#239 = EDGE_LOOP ( 'NONE', ( #235 ) ) ;
#240 = AXIS2_PLACEMENT_3D ( 'NONE', #225, #267, #201 ) ;
#241 = DIRECTION ( 'NONE',  ( -3.491481338843133355E-15, 1.224646799147352961E-16, -1.000000000000000000 ) ) ;
#242 = EDGE_LOOP ( 'NONE', ( #277 ) ) ;
#243 = FACE_OUTER_BOUND ( 'NONE', #239, .T. ) ;
#244 = DIRECTION ( 'NONE',  ( -3.491481338843133355E-15, 1.224646799147352961E-16, -1.000000000000000000 ) ) ;
#245 = LOCAL_TIME ( 15, 47, 15.00000000000000000, #218 ) ;
#246 = FACE_OUTER_BOUND ( 'NONE', #42, .T. ) ;
#247 = CARTESIAN_POINT ( 'NONE',  ( -4.731839565957903391E-32, 0.2357649730810374711, -1.355252715606880543E-17 ) ) ;
#248 = CARTESIAN_POINT ( 'NONE',  ( 2.216146677675516400E-14, 0.3238844939755806673, 6.347296355333847728 ) ) ;
#249 = EDGE_CURVE ( 'NONE', #179, #179, #96, .T. ) ;
#250 = APPLICATION_PROTOCOL_DEFINITION ( 'international standard', 'config_control_design', 1994, #156 ) ;
#251 = APPROVAL_ROLE ( '' ) ;
#252 = APPROVAL ( #208, 'UNSPECIFIED' ) ;
#253 = AXIS2_PLACEMENT_3D ( 'NONE', #265, #147, #106 ) ;
#254 = APPROVAL_DATE_TIME ( #159, #252 ) ;
#255 = CALENDAR_DATE ( 2021, 26, 11 ) ;
#256 = ORIENTED_EDGE ( 'NONE', *, *, #183, .F. ) ;
#257 = AXIS2_PLACEMENT_3D ( 'NONE', #145, #244, #266 ) ;
#258 = DIRECTION ( 'NONE',  ( 0.0000000000000000000, 1.000000000000000000, 0.0000000000000000000 ) ) ;
#259 = DIRECTION ( 'NONE',  ( -3.491481338843133355E-15, 1.224646799147352961E-16, -1.000000000000000000 ) ) ;
#260 = EDGE_LOOP ( 'NONE', ( #280 ) ) ;
#261 = DIRECTION ( 'NONE',  ( 0.0000000000000000000, 1.000000000000000000, 0.0000000000000000000 ) ) ;
#262 = ORIENTED_EDGE ( 'NONE', *, *, #16, .F. ) ;
#263 = AXIS2_PLACEMENT_3D ( 'NONE', #62, #259, #47 ) ;
#264 = AXIS2_PLACEMENT_3D ( 'NONE', #64, #195, #279 ) ;
#265 = CARTESIAN_POINT ( 'NONE',  ( 0.0000000000000000000, 0.0000000000000000000, 0.0000000000000000000 ) ) ;
#266 = DIRECTION ( 'NONE',  ( 4.275831445896957731E-31, 1.000000000000000000, 1.224646799147352961E-16 ) ) ;
#267 = DIRECTION ( 'NONE',  ( -3.491481338843133355E-15, 1.224646799147352961E-16, -1.000000000000000000 ) ) ;
#268 = DIRECTION ( 'NONE',  ( -3.491481338843133355E-15, 1.224646799147352961E-16, -1.000000000000000000 ) ) ;
#269 = ADVANCED_FACE ( 'NONE', ( #73, #115 ), #163, .T. ) ;
#270 =( NAMED_UNIT ( * ) PLANE_ANGLE_UNIT ( ) SI_UNIT ( $, .RADIAN. ) );
#271 = DIRECTION ( 'NONE',  ( -4.275831445896957731E-31, -1.000000000000000000, -1.224646799147352961E-16 ) ) ;
#272 = PERSON_AND_ORGANIZATION ( #39, #60 ) ;
#273 = CALENDAR_DATE ( 2021, 26, 11 ) ;
#274 = DIRECTION ( 'NONE',  ( 0.0000000000000000000, 0.0000000000000000000, 1.000000000000000000 ) ) ;
#275 = CIRCLE ( 'NONE', #172, 0.3238844939755814445 ) ;
#276 = PERSON_AND_ORGANIZATION_ROLE ( 'classification_officer' ) ;
#277 = ORIENTED_EDGE ( 'NONE', *, *, #249, .F. ) ;
#278 = PERSON_AND_ORGANIZATION_ROLE ( 'creator' ) ;
#279 = DIRECTION ( 'NONE',  ( 0.0000000000000000000, -1.000000000000000000, 0.0000000000000000000 ) ) ;
#280 = ORIENTED_EDGE ( 'NONE', *, *, #183, .T. ) ;
#281 = CC_DESIGN_PERSON_AND_ORGANIZATION_ASSIGNMENT ( #56, #232, ( #121 ) ) ;
#282 = EDGE_LOOP ( 'NONE', ( #132 ) ) ;
#283 = DIRECTION ( 'NONE',  ( 4.399531431471708636E-31, 1.000000000000000000, 1.224646799147352961E-16 ) ) ;
ENDSEC;
END-ISO-10303-21;
