ISO-10303-21;
HEADER;
FILE_DESCRIPTION (( 'STEP AP203' ),
    '1' );
FILE_NAME ('200002.step',
    '2021-11-26T14:47:15',
    ( '' ),
    ( '' ),
    'SwSTEP 2.0',
    'SolidWorks 2019',
    '' );
FILE_SCHEMA (( 'CONFIG_CONTROL_DESIGN' ));
ENDSEC;

DATA;
#1 = ORIENTED_EDGE ( 'NONE', *, *, #219, .T. ) ;
#2 = CARTESIAN_POINT ( 'NONE',  ( 4.525192356255872759E-14, -1.587223816138461464E-15, 12.96066602422468961 ) ) ;
#3 = APPLICATION_CONTEXT ( 'configuration controlled 3d designs of mechanical parts and assemblies' ) ;
#4 = ORIENTED_EDGE ( 'NONE', *, *, #135, .F. ) ;
#5 = EDGE_LOOP ( 'NONE', ( #279 ) ) ;
#6 = DIRECTION ( 'NONE',  ( -3.491481338843133355E-15, 1.224646799147352961E-16, -1.000000000000000000 ) ) ;
#7 = ADVANCED_FACE ( 'NONE', ( #264, #140 ), #244, .T. ) ;
#8 = AXIS2_PLACEMENT_3D ( 'NONE', #273, #81, #166 ) ;
#9 = EDGE_CURVE ( 'NONE', #122, #122, #89, .T. ) ;
#10 = CARTESIAN_POINT ( 'NONE',  ( 1.326762908760390423E-13, 8.998558695971099120E-33, 38.00000000000000000 ) ) ;
#11 = DIRECTION ( 'NONE',  ( -4.275831445896957731E-31, -1.000000000000000000, -1.224646799147352961E-16 ) ) ;
#12 = DIRECTION ( 'NONE',  ( 0.0000000000000000000, 1.000000000000000000, 0.0000000000000000000 ) ) ;
#13 = LOCAL_TIME ( 15, 47, 15.00000000000000000, #210 ) ;
#14 = DESIGN_CONTEXT ( 'detailed design', #3, 'design' ) ;
#15 = AXIS2_PLACEMENT_3D ( 'NONE', #156, #223, #37 ) ;
#16 = DIRECTION ( 'NONE',  ( 4.275831445896957731E-31, 1.000000000000000000, 1.224646799147352714E-16 ) ) ;
#17 = MECHANICAL_CONTEXT ( 'NONE', #106, 'mechanical' ) ;
#18 = DIRECTION ( 'NONE',  ( 0.0000000000000000000, 1.000000000000000000, 0.0000000000000000000 ) ) ;
#19 = PERSON_AND_ORGANIZATION ( #256, #192 ) ;
#20 = CC_DESIGN_APPROVAL ( #252, ( #126 ) ) ;
#21 = EDGE_CURVE ( 'NONE', #141, #141, #108, .T. ) ;
#22 = CONICAL_SURFACE ( 'NONE', #136, 1.200000000000003286, 0.7853981633974453924 ) ;
#23 = COORDINATED_UNIVERSAL_TIME_OFFSET ( 1, 0, .AHEAD. ) ;
#24 =( LENGTH_UNIT ( ) NAMED_UNIT ( * ) SI_UNIT ( .MILLI., .METRE. ) );
#25 = CC_DESIGN_DATE_AND_TIME_ASSIGNMENT ( #152, #217, ( #271 ) ) ;
#26 = DATE_AND_TIME ( #215, #212 ) ;
#27 = EDGE_CURVE ( 'NONE', #163, #163, #185, .T. ) ;
#28 = PRODUCT_DEFINITION_FORMATION_WITH_SPECIFIED_SOURCE ( 'ANY', '', #205, .NOT_KNOWN. ) ;
#29 = COORDINATED_UNIVERSAL_TIME_OFFSET ( 1, 0, .AHEAD. ) ;
#30 = ORIENTED_EDGE ( 'NONE', *, *, #268, .F. ) ;
#31 = SHAPE_DEFINITION_REPRESENTATION ( #203, #188 ) ;
#32 = FACE_OUTER_BOUND ( 'NONE', #115, .T. ) ;
#33 = ORIENTED_EDGE ( 'NONE', *, *, #67, .F. ) ;
#34 = CC_DESIGN_APPROVAL ( #93, ( #271 ) ) ;
#35 = ORIENTED_EDGE ( 'NONE', *, *, #27, .T. ) ;
#36 = AXIS2_PLACEMENT_3D ( 'NONE', #71, #218, #117 ) ;
#37 = DIRECTION ( 'NONE',  ( 0.0000000000000000000, 1.000000000000000000, 0.0000000000000000000 ) ) ;
#38 = FACE_OUTER_BOUND ( 'NONE', #276, .T. ) ;
#39 = ADVANCED_FACE ( 'NONE', ( #245, #38 ), #159, .T. ) ;
#40 = DIRECTION ( 'NONE',  ( 0.0000000000000000000, 1.000000000000000000, 0.0000000000000000000 ) ) ;
#41 = AXIS2_PLACEMENT_3D ( 'NONE', #186, #229, #16 ) ;
#42 = CARTESIAN_POINT ( 'NONE',  ( 2.216146677675516085E-14, 0.3338844939755810648, 6.347296355333846840 ) ) ;
#43 = CARTESIAN_POINT ( 'NONE',  ( -5.254248000999596830E-32, 1.842942113069569608E-33, -1.504876438131139555E-17 ) ) ;
#44 = DIRECTION ( 'NONE',  ( 0.0000000000000000000, 0.0000000000000000000, 1.000000000000000000 ) ) ;
#45 = FACE_OUTER_BOUND ( 'NONE', #234, .T. ) ;
#46 = DIRECTION ( 'NONE',  ( -3.491481338843133355E-15, 1.224646799147352961E-16, -1.000000000000000000 ) ) ;
#47 =( NAMED_UNIT ( * ) SI_UNIT ( $, .STERADIAN. ) SOLID_ANGLE_UNIT ( ) );
#48 = APPROVAL_STATUS ( 'not_yet_approved' ) ;
#49 = DIRECTION ( 'NONE',  ( -3.491481338843133355E-15, 1.224646799147352961E-16, -1.000000000000000000 ) ) ;
#50 = TOROIDAL_SURFACE ( 'NONE', #98, 2.303500000000000103, 2.000000000000000000 ) ;
#51 = PERSON_AND_ORGANIZATION_ROLE ( 'classification_officer' ) ;
#52 = FACE_OUTER_BOUND ( 'NONE', #258, .T. ) ;
#53 = CC_DESIGN_PERSON_AND_ORGANIZATION_ASSIGNMENT ( #277, #149, ( #28 ) ) ;
#54 = FACE_OUTER_BOUND ( 'NONE', #150, .T. ) ;
#55 = APPROVAL_PERSON_ORGANIZATION ( #175, #93, #110 ) ;
#56 = EDGE_LOOP ( 'NONE', ( #116 ) ) ;
#57 = AXIS2_PLACEMENT_3D ( 'NONE', #198, #94, #160 ) ;
#58 = ORIENTED_EDGE ( 'NONE', *, *, #9, .F. ) ;
#59 = CARTESIAN_POINT ( 'NONE',  ( 1.326762908760390423E-13, -4.653657836759941152E-15, 38.00000000000000000 ) ) ;
#60 = DIRECTION ( 'NONE',  ( 3.491481338843133355E-15, -1.224646799147352961E-16, 1.000000000000000000 ) ) ;
#61 = AXIS2_PLACEMENT_3D ( 'NONE', #10, #165, #79 ) ;
#62 = FACE_BOUND ( 'NONE', #95, .T. ) ;
#63 = DIRECTION ( 'NONE',  ( 4.759299697826788709E-31, 1.000000000000000000, 1.339623771604827490E-16 ) ) ;
#64 = DIRECTION ( 'NONE',  ( -3.491481338843133355E-15, 1.224646799147352961E-16, -1.000000000000000000 ) ) ;
#65 = VERTEX_POINT ( 'NONE', #214 ) ;
#66 = AXIS2_PLACEMENT_3D ( 'NONE', #246, #64, #104 ) ;
#67 = EDGE_CURVE ( 'NONE', #144, #144, #173, .T. ) ;
#68 = APPROVAL_DATE_TIME ( #190, #93 ) ;
#69 = CALENDAR_DATE ( 2021, 26, 11 ) ;
#70 = CALENDAR_DATE ( 2021, 26, 11 ) ;
#71 = CARTESIAN_POINT ( 'NONE',  ( 1.396592535537253342E-14, -4.898587196589411843E-16, 4.000000000000000000 ) ) ;
#72 = AXIS2_PLACEMENT_3D ( 'NONE', #270, #125, #146 ) ;
#73 = MANIFOLD_SOLID_BREP ( 'Corps-Déplacer/Copier1[2]', #127 ) ;
#74 = DIRECTION ( 'NONE',  ( 4.275831445896957731E-31, 1.000000000000000000, 1.224646799147353207E-16 ) ) ;
#75 = EDGE_LOOP ( 'NONE', ( #233 ) ) ;
#76 = ADVANCED_FACE ( 'NONE', ( #32, #91 ), #195, .T. ) ;
#77 = EDGE_LOOP ( 'NONE', ( #178 ) ) ;
#78 = VERTEX_POINT ( 'NONE', #162 ) ;
#79 = DIRECTION ( 'NONE',  ( 4.275831445896957731E-31, 1.000000000000000000, 1.224646799147352961E-16 ) ) ;
#80 = LOCAL_TIME ( 15, 47, 15.00000000000000000, #278 ) ;
#81 = DIRECTION ( 'NONE',  ( 3.491481338843133355E-15, -1.224646799147352961E-16, 1.000000000000000000 ) ) ;
#82 = CARTESIAN_POINT ( 'NONE',  ( 0.0000000000000000000, 0.0000000000000000000, 0.0000000000000000000 ) ) ;
#83 = ADVANCED_FACE ( 'NONE', ( #241, #52 ), #171, .T. ) ;
#84 = CARTESIAN_POINT ( 'NONE',  ( 1.326762908760390423E-13, 1.199999999999998845, 38.00000000000000000 ) ) ;
#85 = FACE_OUTER_BOUND ( 'NONE', #265, .T. ) ;
#86 =( NAMED_UNIT ( * ) PLANE_ANGLE_UNIT ( ) SI_UNIT ( $, .RADIAN. ) );
#87 = CC_DESIGN_PERSON_AND_ORGANIZATION_ASSIGNMENT ( #194, #132, ( #28 ) ) ;
#88 = AXIS2_PLACEMENT_3D ( 'NONE', #196, #6, #181 ) ;
#89 = CIRCLE ( 'NONE', #15, 0.3034999999999996034 ) ;
#90 = PERSON_AND_ORGANIZATION_ROLE ( 'creator' ) ;
#91 = FACE_OUTER_BOUND ( 'NONE', #267, .T. ) ;
#92 = CC_DESIGN_SECURITY_CLASSIFICATION ( #271, ( #28 ) ) ;
#93 = APPROVAL ( #48, 'UNSPECIFIED' ) ;
#94 = DIRECTION ( 'NONE',  ( -3.491481338843133355E-15, 1.224646799147352961E-16, -1.000000000000000000 ) ) ;
#95 = EDGE_LOOP ( 'NONE', ( #35 ) ) ;
#96 = ORIENTED_EDGE ( 'NONE', *, *, #282, .T. ) ;
#97 = EDGE_LOOP ( 'NONE', ( #33 ) ) ;
#98 = AXIS2_PLACEMENT_3D ( 'NONE', #207, #119, #103 ) ;
#99 = PLANE ( 'NONE',  #8 ) ;
#100 = APPROVAL ( #237, 'UNSPECIFIED' ) ;
#101 = FACE_OUTER_BOUND ( 'NONE', #97, .T. ) ;
#102 =( GEOMETRIC_REPRESENTATION_CONTEXT ( 3 ) GLOBAL_UNCERTAINTY_ASSIGNED_CONTEXT ( ( #123 ) ) GLOBAL_UNIT_ASSIGNED_CONTEXT ( ( #24, #86, #47 ) ) REPRESENTATION_CONTEXT ( 'NONE', 'WORKASPACE' ) );
#103 = DIRECTION ( 'NONE',  ( 4.399243991049785656E-31, 1.000000000000000000, 1.224646799147352961E-16 ) ) ;
#104 = DIRECTION ( 'NONE',  ( 4.275831445896958607E-31, 1.000000000000000000, 1.224646799147352961E-16 ) ) ;
#105 = CARTESIAN_POINT ( 'NONE',  ( 4.525192356255872759E-14, 1.499999999999995559, 12.96066602422468961 ) ) ;
#106 = APPLICATION_CONTEXT ( 'configuration controlled 3d designs of mechanical parts and assemblies' ) ;
#107 = APPROVAL_PERSON_ORGANIZATION ( #257, #100, #216 ) ;
#108 = CIRCLE ( 'NONE', #36, 0.3034999999999996034 ) ;
#109 = AXIS2_PLACEMENT_3D ( 'NONE', #227, #182, #167 ) ;
#110 = APPROVAL_ROLE ( '' ) ;
#111 = COORDINATED_UNIVERSAL_TIME_OFFSET ( 1, 0, .AHEAD. ) ;
#112 = CALENDAR_DATE ( 2021, 26, 11 ) ;
#113 = ADVANCED_FACE ( 'NONE', ( #221, #54 ), #139, .T. ) ;
#114 = DIRECTION ( 'NONE',  ( -4.759299697826788709E-31, -1.000000000000000000, -1.339623771604827490E-16 ) ) ;
#115 = EDGE_LOOP ( 'NONE', ( #266 ) ) ;
#116 = ORIENTED_EDGE ( 'NONE', *, *, #222, .F. ) ;
#117 = DIRECTION ( 'NONE',  ( 0.0000000000000000000, 1.000000000000000000, 0.0000000000000000000 ) ) ;
#118 = CARTESIAN_POINT ( 'NONE',  ( 3.491481338843132862E-16, -1.224646799147352653E-17, 0.09999999999999997780 ) ) ;
#119 = DIRECTION ( 'NONE',  ( -3.491481338843133355E-15, 1.224646799147352961E-16, -1.000000000000000000 ) ) ;
#120 = AXIS2_PLACEMENT_3D ( 'NONE', #177, #261, #74 ) ;
#121 = FACE_OUTER_BOUND ( 'NONE', #213, .T. ) ;
#122 = VERTEX_POINT ( 'NONE', #230 ) ;
#123 = UNCERTAINTY_MEASURE_WITH_UNIT (LENGTH_MEASURE( 1.000000000000000082E-05 ), #24, 'distance_accuracy_value', 'NONE');
#124 = AXIS2_PLACEMENT_3D ( 'NONE', #269, #46, #40 ) ;
#125 = DIRECTION ( 'NONE',  ( -3.491481338843133355E-15, 1.224646799147352961E-16, -1.000000000000000000 ) ) ;
#126 = PRODUCT_DEFINITION ( 'UNKNOWN', '', #28, #14 ) ;
#127 = CLOSED_SHELL ( 'NONE', ( #172, #39, #76, #236 ) ) ;
#128 = CARTESIAN_POINT ( 'NONE',  ( 2.094888803305880013E-14, 0.3034999999999991038, 6.000000000000000000 ) ) ;
#129 = APPROVAL_ROLE ( '' ) ;
#130 = EDGE_LOOP ( 'NONE', ( #58 ) ) ;
#131 = EDGE_LOOP ( 'NONE', ( #179 ) ) ;
#132 = PERSON_AND_ORGANIZATION_ROLE ( 'creator' ) ;
#133 = ORIENTED_EDGE ( 'NONE', *, *, #222, .T. ) ;
#134 = LOCAL_TIME ( 15, 47, 15.00000000000000000, #29 ) ;
#135 = EDGE_CURVE ( 'NONE', #209, #209, #226, .T. ) ;
#136 = AXIS2_PLACEMENT_3D ( 'NONE', #59, #253, #18 ) ;
#137 = ORIENTED_EDGE ( 'NONE', *, *, #67, .T. ) ;
#138 = EDGE_LOOP ( 'NONE', ( #4 ) ) ;
#139 = CYLINDRICAL_SURFACE ( 'NONE', #66, 0.3034999999999997145 ) ;
#140 = FACE_OUTER_BOUND ( 'NONE', #153, .T. ) ;
#141 = VERTEX_POINT ( 'NONE', #206 ) ;
#142 = CIRCLE ( 'NONE', #124, 1.500000000000003331 ) ;
#143 = DIRECTION ( 'NONE',  ( -3.491481338843133355E-15, 1.224646799147352961E-16, -1.000000000000000000 ) ) ;
#144 = VERTEX_POINT ( 'NONE', #128 ) ;
#145 = DIRECTION ( 'NONE',  ( 1.000000000000000000, 0.0000000000000000000, 0.0000000000000000000 ) ) ;
#146 = DIRECTION ( 'NONE',  ( 0.0000000000000000000, 1.000000000000000000, 0.0000000000000000000 ) ) ;
#147 = APPLICATION_PROTOCOL_DEFINITION ( 'international standard', 'config_control_design', 1994, #3 ) ;
#148 = CC_DESIGN_DATE_AND_TIME_ASSIGNMENT ( #26, #151, ( #126 ) ) ;
#149 = PERSON_AND_ORGANIZATION_ROLE ( 'design_supplier' ) ;
#150 = EDGE_LOOP ( 'NONE', ( #137 ) ) ;
#151 = DATE_TIME_ROLE ( 'creation_date' ) ;
#152 = DATE_AND_TIME ( #69, #80 ) ;
#153 = EDGE_LOOP ( 'NONE', ( #157 ) ) ;
#154 = CIRCLE ( 'NONE', #41, 0.2457649730810375077 ) ;
#155 = PERSON_AND_ORGANIZATION ( #256, #192 ) ;
#156 = CARTESIAN_POINT ( 'NONE',  ( 1.396592535537253342E-14, -4.898587196589411843E-16, 4.000000000000000000 ) ) ;
#157 = ORIENTED_EDGE ( 'NONE', *, *, #268, .T. ) ;
#158 = APPROVAL_PERSON_ORGANIZATION ( #19, #252, #129 ) ;
#159 = CONICAL_SURFACE ( 'NONE', #231, 0.3034999999999992704, 0.5235987755982925984 ) ;
#160 = DIRECTION ( 'NONE',  ( 0.0000000000000000000, 1.000000000000000000, 0.0000000000000000000 ) ) ;
#161 = ADVANCED_FACE ( 'NONE', ( #101, #45 ), #50, .F. ) ;
#162 = CARTESIAN_POINT ( 'NONE',  ( 2.138211768073756517E-47, 0.2457649730810375077, 0.0000000000000000000 ) ) ;
#163 = VERTEX_POINT ( 'NONE', #84 ) ;
#164 = CC_DESIGN_APPROVAL ( #100, ( #28 ) ) ;
#165 = DIRECTION ( 'NONE',  ( -3.491481338843133355E-15, 1.224646799147352961E-16, -1.000000000000000000 ) ) ;
#166 = DIRECTION ( 'NONE',  ( -4.275831445896957731E-31, -1.000000000000000000, -1.224646799147352961E-16 ) ) ;
#167 = DIRECTION ( 'NONE',  ( -4.275831445896957731E-31, -1.000000000000000000, -1.224646799147352961E-16 ) ) ;
#168 = PERSON_AND_ORGANIZATION ( #256, #192 ) ;
#169 = CIRCLE ( 'NONE', #235, 0.3034999999999992704 ) ;
#170 = CALENDAR_DATE ( 2021, 26, 11 ) ;
#171 = CONICAL_SURFACE ( 'NONE', #201, 1.499999999999996891, 0.1745329251994259534 ) ;
#172 = ADVANCED_FACE ( 'NONE', ( #85 ), #184, .F. ) ;
#173 = CIRCLE ( 'NONE', #88, 0.3034999999999998255 ) ;
#174 = CC_DESIGN_PERSON_AND_ORGANIZATION_ASSIGNMENT ( #168, #255, ( #205 ) ) ;
#175 = PERSON_AND_ORGANIZATION ( #256, #192 ) ;
#176 = SECURITY_CLASSIFICATION_LEVEL ( 'unclassified' ) ;
#177 = CARTESIAN_POINT ( 'NONE',  ( 0.0000000000000000000, 0.0000000000000000000, 0.0000000000000000000 ) ) ;
#178 = ORIENTED_EDGE ( 'NONE', *, *, #219, .F. ) ;
#179 = ORIENTED_EDGE ( 'NONE', *, *, #21, .F. ) ;
#180 = CC_DESIGN_PERSON_AND_ORGANIZATION_ASSIGNMENT ( #155, #90, ( #126 ) ) ;
#181 = DIRECTION ( 'NONE',  ( 0.0000000000000000000, 1.000000000000000000, 0.0000000000000000000 ) ) ;
#182 = DIRECTION ( 'NONE',  ( 3.491481338843133355E-15, -1.224646799147352961E-16, 1.000000000000000000 ) ) ;
#183 = FACE_OUTER_BOUND ( 'NONE', #75, .T. ) ;
#184 = PLANE ( 'NONE',  #189 ) ;
#185 = CIRCLE ( 'NONE', #57, 1.200000000000003286 ) ;
#186 = CARTESIAN_POINT ( 'NONE',  ( -1.050849600199919366E-31, 3.685884226139139216E-33, -3.009752876262279110E-17 ) ) ;
#187 = DATE_AND_TIME ( #170, #13 ) ;
#188 = ADVANCED_BREP_SHAPE_REPRESENTATION ( '200002', ( #260, #73, #254 ), #102 ) ;
#189 = AXIS2_PLACEMENT_3D ( 'NONE', #43, #60, #11 ) ;
#190 = DATE_AND_TIME ( #70, #280 ) ;
#191 = ORIENTED_EDGE ( 'NONE', *, *, #21, .T. ) ;
#192 = ORGANIZATION ( 'UNSPECIFIED', 'UNSPECIFIED', '' ) ;
#193 = CC_DESIGN_PERSON_AND_ORGANIZATION_ASSIGNMENT ( #283, #51, ( #271 ) ) ;
#194 = PERSON_AND_ORGANIZATION ( #256, #192 ) ;
#195 = CYLINDRICAL_SURFACE ( 'NONE', #120, 0.3034999999999993814 ) ;
#196 = CARTESIAN_POINT ( 'NONE',  ( 2.094888803305880013E-14, -7.347880794884118750E-16, 6.000000000000000000 ) ) ;
#197 = ORIENTED_EDGE ( 'NONE', *, *, #135, .T. ) ;
#198 = CARTESIAN_POINT ( 'NONE',  ( 1.326762908760390423E-13, -4.653657836759941152E-15, 38.00000000000000000 ) ) ;
#199 = ADVANCED_FACE ( 'NONE', ( #183 ), #202, .F. ) ;
#200 = DIRECTION ( 'NONE',  ( 3.491481338843133355E-15, -1.224646799147352961E-16, 1.000000000000000000 ) ) ;
#201 = AXIS2_PLACEMENT_3D ( 'NONE', #2, #243, #220 ) ;
#202 = PLANE ( 'NONE',  #61 ) ;
#203 = PRODUCT_DEFINITION_SHAPE ( 'NONE', 'NONE',  #126 ) ;
#204 = CARTESIAN_POINT ( 'NONE',  ( 3.491481338843132862E-16, -1.224646799147352653E-17, 0.09999999999999997780 ) ) ;
#205 = PRODUCT ( '200002', '200002', '', ( #17 ) ) ;
#206 = CARTESIAN_POINT ( 'NONE',  ( 1.396592535537253342E-14, 0.3034999999999991593, 4.000000000000000000 ) ) ;
#207 = CARTESIAN_POINT ( 'NONE',  ( 2.094888803305880013E-14, -8.673617379884035472E-16, 6.000000000000000000 ) ) ;
#208 = APPLICATION_PROTOCOL_DEFINITION ( 'international standard', 'config_control_design', 1994, #106 ) ;
#209 = VERTEX_POINT ( 'NONE', #105 ) ;
#210 = COORDINATED_UNIVERSAL_TIME_OFFSET ( 1, 0, .AHEAD. ) ;
#211 = ADVANCED_FACE ( 'NONE', ( #225 ), #99, .F. ) ;
#212 = LOCAL_TIME ( 15, 47, 15.00000000000000000, #23 ) ;
#213 = EDGE_LOOP ( 'NONE', ( #30 ) ) ;
#214 = CARTESIAN_POINT ( 'NONE',  ( 1.316288464743861212E-13, 1.499999999999998668, 37.69999999999999574 ) ) ;
#215 = CALENDAR_DATE ( 2021, 26, 11 ) ;
#216 = APPROVAL_ROLE ( '' ) ;
#217 = DATE_TIME_ROLE ( 'classification_date' ) ;
#218 = DIRECTION ( 'NONE',  ( -3.491481338843133355E-15, 1.224646799147352961E-16, -1.000000000000000000 ) ) ;
#219 = EDGE_CURVE ( 'NONE', #78, #78, #154, .T. ) ;
#220 = DIRECTION ( 'NONE',  ( 0.0000000000000000000, -1.000000000000000000, 0.0000000000000000000 ) ) ;
#221 = FACE_OUTER_BOUND ( 'NONE', #130, .T. ) ;
#222 = EDGE_CURVE ( 'NONE', #247, #247, #263, .T. ) ;
#223 = DIRECTION ( 'NONE',  ( -3.491481338843133355E-15, 1.224646799147352961E-16, -1.000000000000000000 ) ) ;
#224 = DIRECTION ( 'NONE',  ( 4.275831445896957731E-31, 1.000000000000000000, 1.224646799147353207E-16 ) ) ;
#225 = FACE_OUTER_BOUND ( 'NONE', #5, .T. ) ;
#226 = CIRCLE ( 'NONE', #239, 1.499999999999996891 ) ;
#227 = CARTESIAN_POINT ( 'NONE',  ( 1.396592535537253342E-14, 2.275885470189357959E-33, 4.000000000000000000 ) ) ;
#228 = DIRECTION ( 'NONE',  ( -3.491481338843133355E-15, 1.224646799147352961E-16, -1.000000000000000000 ) ) ;
#229 = DIRECTION ( 'NONE',  ( -3.491481338843133355E-15, 1.224646799147352961E-16, -1.000000000000000000 ) ) ;
#230 = CARTESIAN_POINT ( 'NONE',  ( 1.396592535537253342E-14, 0.3034999999999991593, 4.000000000000000000 ) ) ;
#231 = AXIS2_PLACEMENT_3D ( 'NONE', #118, #200, #114 ) ;
#232 = APPROVAL_STATUS ( 'not_yet_approved' ) ;
#233 = ORIENTED_EDGE ( 'NONE', *, *, #27, .F. ) ;
#234 = EDGE_LOOP ( 'NONE', ( #133 ) ) ;
#235 = AXIS2_PLACEMENT_3D ( 'NONE', #204, #228, #63 ) ;
#236 = ADVANCED_FACE ( 'NONE', ( #272 ), #249, .T. ) ;
#237 = APPROVAL_STATUS ( 'not_yet_approved' ) ;
#238 = CARTESIAN_POINT ( 'NONE',  ( 0.0000000000000000000, 0.0000000000000000000, 0.0000000000000000000 ) ) ;
#239 = AXIS2_PLACEMENT_3D ( 'NONE', #251, #143, #12 ) ;
#240 = DATE_AND_TIME ( #112, #134 ) ;
#241 = FACE_BOUND ( 'NONE', #56, .T. ) ;
#242 = PRODUCT_RELATED_PRODUCT_CATEGORY ( 'detail', '', ( #205 ) ) ;
#243 = DIRECTION ( 'NONE',  ( 3.491481338843133355E-15, -1.224646799147352961E-16, 1.000000000000000000 ) ) ;
#244 = CYLINDRICAL_SURFACE ( 'NONE', #262, 1.500000000000000000 ) ;
#245 = FACE_BOUND ( 'NONE', #77, .T. ) ;
#246 = CARTESIAN_POINT ( 'NONE',  ( 0.0000000000000000000, 0.0000000000000000000, 0.0000000000000000000 ) ) ;
#247 = VERTEX_POINT ( 'NONE', #42 ) ;
#248 = ADVANCED_FACE ( 'NONE', ( #121, #62 ), #22, .T. ) ;
#249 = PLANE ( 'NONE',  #109 ) ;
#250 = VERTEX_POINT ( 'NONE', #274 ) ;
#251 = CARTESIAN_POINT ( 'NONE',  ( 4.525192356255872759E-14, -1.587223816138461464E-15, 12.96066602422468961 ) ) ;
#252 = APPROVAL ( #232, 'UNSPECIFIED' ) ;
#253 = DIRECTION ( 'NONE',  ( -3.491481338843133355E-15, 1.224646799147352961E-16, -1.000000000000000000 ) ) ;
#254 = AXIS2_PLACEMENT_3D ( 'NONE', #82, #44, #145 ) ;
#255 = PERSON_AND_ORGANIZATION_ROLE ( 'design_owner' ) ;
#256 = PERSON ( 'UNSPECIFIED', 'UNSPECIFIED', 'UNSPECIFIED', ('UNSPECIFIED'), ('UNSPECIFIED'), ('UNSPECIFIED') ) ;
#257 = PERSON_AND_ORGANIZATION ( #256, #192 ) ;
#258 = EDGE_LOOP ( 'NONE', ( #197 ) ) ;
#259 = CLOSED_SHELL ( 'NONE', ( #211, #113, #161, #83, #7, #248, #199 ) ) ;
#260 = MANIFOLD_SOLID_BREP ( 'Corps-Déplacer/Copier1[1]', #259 ) ;
#261 = DIRECTION ( 'NONE',  ( -3.491481338843133355E-15, 1.224646799147352961E-16, -1.000000000000000000 ) ) ;
#262 = AXIS2_PLACEMENT_3D ( 'NONE', #238, #49, #224 ) ;
#263 = CIRCLE ( 'NONE', #72, 0.3338844939755817864 ) ;
#264 = FACE_OUTER_BOUND ( 'NONE', #138, .T. ) ;
#265 = EDGE_LOOP ( 'NONE', ( #1 ) ) ;
#266 = ORIENTED_EDGE ( 'NONE', *, *, #282, .F. ) ;
#267 = EDGE_LOOP ( 'NONE', ( #191 ) ) ;
#268 = EDGE_CURVE ( 'NONE', #65, #65, #142, .T. ) ;
#269 = CARTESIAN_POINT ( 'NONE',  ( 1.316288464743861212E-13, -4.616918432785520292E-15, 37.69999999999999574 ) ) ;
#270 = CARTESIAN_POINT ( 'NONE',  ( 2.216146677675516085E-14, -7.773196164799255877E-16, 6.347296355333846840 ) ) ;
#271 = SECURITY_CLASSIFICATION ( '', '', #176 ) ;
#272 = FACE_OUTER_BOUND ( 'NONE', #131, .T. ) ;
#273 = CARTESIAN_POINT ( 'NONE',  ( 1.396592535537253342E-14, 2.275885470189357959E-33, 4.000000000000000000 ) ) ;
#274 = CARTESIAN_POINT ( 'NONE',  ( 3.491481338843134341E-16, 0.3034999999999992704, 0.1000000000000000194 ) ) ;
#275 = APPROVAL_DATE_TIME ( #187, #252 ) ;
#276 = EDGE_LOOP ( 'NONE', ( #96 ) ) ;
#277 = PERSON_AND_ORGANIZATION ( #256, #192 ) ;
#278 = COORDINATED_UNIVERSAL_TIME_OFFSET ( 1, 0, .AHEAD. ) ;
#279 = ORIENTED_EDGE ( 'NONE', *, *, #9, .T. ) ;
#280 = LOCAL_TIME ( 15, 47, 15.00000000000000000, #111 ) ;
#281 = APPROVAL_DATE_TIME ( #240, #100 ) ;
#282 = EDGE_CURVE ( 'NONE', #250, #250, #169, .T. ) ;
#283 = PERSON_AND_ORGANIZATION ( #256, #192 ) ;
ENDSEC;
END-ISO-10303-21;
