ISO-10303-21;
HEADER;
FILE_DESCRIPTION (( 'STEP AP203' ),
    '1' );
FILE_NAME ('200001.step',
    '2021-11-26T14:47:14',
    ( '' ),
    ( '' ),
    'SwSTEP 2.0',
    'SolidWorks 2019',
    '' );
FILE_SCHEMA (( 'CONFIG_CONTROL_DESIGN' ));
ENDSEC;

DATA;
#1 = CIRCLE ( 'NONE', #245, 0.2207649730810375410 ) ;
#2 = DIRECTION ( 'NONE',  ( -3.491481338843133355E-15, 1.224646799147352961E-16, -1.000000000000000000 ) ) ;
#3 = ADVANCED_FACE ( 'NONE', ( #118, #271 ), #89, .T. ) ;
#4 = APPROVAL ( #238, 'UNSPECIFIED' ) ;
#5 = AXIS2_PLACEMENT_3D ( 'NONE', #253, #278, #32 ) ;
#6 = DIRECTION ( 'NONE',  ( -3.491481338843133355E-15, 1.224646799147352961E-16, -1.000000000000000000 ) ) ;
#7 = UNCERTAINTY_MEASURE_WITH_UNIT (LENGTH_MEASURE( 1.000000000000000082E-05 ), #200, 'distance_accuracy_value', 'NONE');
#8 = DIRECTION ( 'NONE',  ( -3.491481338843133355E-15, 1.224646799147352961E-16, -1.000000000000000000 ) ) ;
#9 = AXIS2_PLACEMENT_3D ( 'NONE', #213, #103, #11 ) ;
#10 = DIRECTION ( 'NONE',  ( -3.491481338843133355E-15, 1.224646799147352961E-16, -1.000000000000000000 ) ) ;
#11 = DIRECTION ( 'NONE',  ( 0.0000000000000000000, 1.000000000000000000, 0.0000000000000000000 ) ) ;
#12 = CARTESIAN_POINT ( 'NONE',  ( -9.439538140524956855E-32, 3.310944280473675498E-33, -2.703591176475441486E-17 ) ) ;
#13 = EDGE_CURVE ( 'NONE', #131, #131, #14, .T. ) ;
#14 = CIRCLE ( 'NONE', #139, 1.500000000000003331 ) ;
#15 = DIRECTION ( 'NONE',  ( 3.491481338843133355E-15, -1.224646799147352961E-16, 1.000000000000000000 ) ) ;
#16 = PERSON_AND_ORGANIZATION ( #87, #270 ) ;
#17 = APPROVAL_ROLE ( '' ) ;
#18 = DATE_AND_TIME ( #155, #41 ) ;
#19 = SECURITY_CLASSIFICATION ( '', '', #54 ) ;
#20 = VERTEX_POINT ( 'NONE', #22 ) ;
#21 = EDGE_LOOP ( 'NONE', ( #207 ) ) ;
#22 = CARTESIAN_POINT ( 'NONE',  ( 1.396592535537253342E-14, 0.2784999999999992482, 4.000000000000000000 ) ) ;
#23 = EDGE_LOOP ( 'NONE', ( #63 ) ) ;
#24 =( NAMED_UNIT ( * ) SI_UNIT ( $, .STERADIAN. ) SOLID_ANGLE_UNIT ( ) );
#25 = CIRCLE ( 'NONE', #9, 0.2784999999999997478 ) ;
#26 = DIRECTION ( 'NONE',  ( -3.491481338843133355E-15, 1.224646799147352961E-16, -1.000000000000000000 ) ) ;
#27 = CYLINDRICAL_SURFACE ( 'NONE', #104, 1.500000000000000000 ) ;
#28 = FACE_OUTER_BOUND ( 'NONE', #136, .T. ) ;
#29 = ADVANCED_FACE ( 'NONE', ( #96, #247 ), #152, .F. ) ;
#30 = DIRECTION ( 'NONE',  ( 3.457683921700611424E-31, 1.000000000000000000, 1.459877252000233957E-16 ) ) ;
#31 = ADVANCED_BREP_SHAPE_REPRESENTATION ( '200001', ( #74, #79, #62 ), #221 ) ;
#32 = DIRECTION ( 'NONE',  ( -4.275831445896957731E-31, -1.000000000000000000, -1.224646799147352961E-16 ) ) ;
#33 = FACE_BOUND ( 'NONE', #40, .T. ) ;
#34 = DATE_AND_TIME ( #261, #83 ) ;
#35 = DATE_TIME_ROLE ( 'creation_date' ) ;
#36 = CIRCLE ( 'NONE', #273, 1.499999999999996891 ) ;
#37 = FACE_OUTER_BOUND ( 'NONE', #117, .T. ) ;
#38 = ORIENTED_EDGE ( 'NONE', *, *, #73, .T. ) ;
#39 = PERSON_AND_ORGANIZATION_ROLE ( 'design_owner' ) ;
#40 = EDGE_LOOP ( 'NONE', ( #158 ) ) ;
#41 = LOCAL_TIME ( 15, 47, 14.00000000000000000, #219 ) ;
#42 = PRODUCT ( '200001', '200001', '', ( #84 ) ) ;
#43 = CC_DESIGN_PERSON_AND_ORGANIZATION_ASSIGNMENT ( #114, #214, ( #154 ) ) ;
#44 = LOCAL_TIME ( 15, 47, 14.00000000000000000, #276 ) ;
#45 = FACE_OUTER_BOUND ( 'NONE', #283, .T. ) ;
#46 = DIRECTION ( 'NONE',  ( -3.491481338843133355E-15, 1.224646799147352961E-16, -1.000000000000000000 ) ) ;
#47 = CARTESIAN_POINT ( 'NONE',  ( 1.316288464743861212E-13, -4.616918432785520292E-15, 37.69999999999999574 ) ) ;
#48 = AXIS2_PLACEMENT_3D ( 'NONE', #98, #147, #231 ) ;
#49 = CYLINDRICAL_SURFACE ( 'NONE', #66, 0.2784999999999998588 ) ;
#50 = PLANE ( 'NONE',  #264 ) ;
#51 = APPROVAL_DATE_TIME ( #171, #115 ) ;
#52 = DIRECTION ( 'NONE',  ( -3.491481338843133355E-15, 1.224646799147352961E-16, -1.000000000000000000 ) ) ;
#53 = APPROVAL_PERSON_ORGANIZATION ( #135, #4, #17 ) ;
#54 = SECURITY_CLASSIFICATION_LEVEL ( 'unclassified' ) ;
#55 = CC_DESIGN_PERSON_AND_ORGANIZATION_ASSIGNMENT ( #150, #208, ( #227 ) ) ;
#56 = PRODUCT_RELATED_PRODUCT_CATEGORY ( 'detail', '', ( #42 ) ) ;
#57 = CARTESIAN_POINT ( 'NONE',  ( 3.491481338843132369E-16, -1.224646799147352498E-17, 0.09999999999999996392 ) ) ;
#58 = CARTESIAN_POINT ( 'NONE',  ( 0.0000000000000000000, 0.0000000000000000000, 0.0000000000000000000 ) ) ;
#59 = APPROVAL_ROLE ( '' ) ;
#60 = DIRECTION ( 'NONE',  ( -4.275831445896957731E-31, -1.000000000000000000, -1.224646799147352961E-16 ) ) ;
#61 = DIRECTION ( 'NONE',  ( 1.000000000000000000, 0.0000000000000000000, 0.0000000000000000000 ) ) ;
#62 = AXIS2_PLACEMENT_3D ( 'NONE', #132, #181, #61 ) ;
#63 = ORIENTED_EDGE ( 'NONE', *, *, #239, .T. ) ;
#64 = APPLICATION_CONTEXT ( 'configuration controlled 3d designs of mechanical parts and assemblies' ) ;
#65 = CARTESIAN_POINT ( 'NONE',  ( 4.574695292857163663E-14, 1.499999999999995559, 13.10244806971513754 ) ) ;
#66 = AXIS2_PLACEMENT_3D ( 'NONE', #187, #46, #269 ) ;
#67 = CARTESIAN_POINT ( 'NONE',  ( 1.326762908760390423E-13, 1.199999999999998845, 38.00000000000000000 ) ) ;
#68 = EDGE_LOOP ( 'NONE', ( #250 ) ) ;
#69 = DIRECTION ( 'NONE',  ( -3.491481338843133355E-15, 1.224646799147352961E-16, -1.000000000000000000 ) ) ;
#70 = CIRCLE ( 'NONE', #166, 0.2784999999999993037 ) ;
#71 = DIRECTION ( 'NONE',  ( 0.0000000000000000000, 1.000000000000000000, 0.0000000000000000000 ) ) ;
#72 = APPROVAL_DATE_TIME ( #163, #4 ) ;
#73 = EDGE_CURVE ( 'NONE', #277, #277, #94, .T. ) ;
#74 = MANIFOLD_SOLID_BREP ( 'Corps-Déplacer/Copier1[1]', #216 ) ;
#75 = CC_DESIGN_DATE_AND_TIME_ASSIGNMENT ( #34, #111, ( #19 ) ) ;
#76 = DIRECTION ( 'NONE',  ( 4.399965111449181733E-31, 1.000000000000000000, 1.224646799147352961E-16 ) ) ;
#77 = AXIS2_PLACEMENT_3D ( 'NONE', #58, #149, #80 ) ;
#78 = FACE_OUTER_BOUND ( 'NONE', #225, .T. ) ;
#79 = MANIFOLD_SOLID_BREP ( 'Corps-Déplacer/Copier1[2]', #258 ) ;
#80 = DIRECTION ( 'NONE',  ( 4.275831445896957731E-31, 1.000000000000000000, 1.224646799147352714E-16 ) ) ;
#81 = DATE_AND_TIME ( #235, #44 ) ;
#82 = DIRECTION ( 'NONE',  ( 3.491481338843133355E-15, -1.224646799147352961E-16, 1.000000000000000000 ) ) ;
#83 = LOCAL_TIME ( 15, 47, 14.00000000000000000, #280 ) ;
#84 = MECHANICAL_CONTEXT ( 'NONE', #102, 'mechanical' ) ;
#85 = DIRECTION ( 'NONE',  ( 4.275831445896957731E-31, 1.000000000000000000, 1.224646799147352961E-16 ) ) ;
#86 = CYLINDRICAL_SURFACE ( 'NONE', #77, 0.2784999999999995257 ) ;
#87 = PERSON ( 'UNSPECIFIED', 'UNSPECIFIED', 'UNSPECIFIED', ('UNSPECIFIED'), ('UNSPECIFIED'), ('UNSPECIFIED') ) ;
#88 = EDGE_LOOP ( 'NONE', ( #113 ) ) ;
#89 = CONICAL_SURFACE ( 'NONE', #48, 0.2784999999999993037, 0.5235987755982927094 ) ;
#90 = EDGE_LOOP ( 'NONE', ( #202 ) ) ;
#91 = PERSON_AND_ORGANIZATION ( #87, #270 ) ;
#92 = ORIENTED_EDGE ( 'NONE', *, *, #13, .T. ) ;
#93 = VERTEX_POINT ( 'NONE', #222 ) ;
#94 = CIRCLE ( 'NONE', #236, 0.2784999999999997478 ) ;
#95 = DIRECTION ( 'NONE',  ( 4.275831445896957731E-31, 1.000000000000000000, 1.224646799147353207E-16 ) ) ;
#96 = FACE_OUTER_BOUND ( 'NONE', #88, .T. ) ;
#97 = CIRCLE ( 'NONE', #108, 0.3088844939755813201 ) ;
#98 = CARTESIAN_POINT ( 'NONE',  ( 3.491481338843132369E-16, -1.224646799147352498E-17, 0.09999999999999996392 ) ) ;
#99 = CALENDAR_DATE ( 2021, 26, 11 ) ;
#100 = ADVANCED_FACE ( 'NONE', ( #123 ), #101, .F. ) ;
#101 = PLANE ( 'NONE',  #249 ) ;
#102 = APPLICATION_CONTEXT ( 'configuration controlled 3d designs of mechanical parts and assemblies' ) ;
#103 = DIRECTION ( 'NONE',  ( -3.491481338843133355E-15, 1.224646799147352961E-16, -1.000000000000000000 ) ) ;
#104 = AXIS2_PLACEMENT_3D ( 'NONE', #126, #2, #95 ) ;
#105 = CARTESIAN_POINT ( 'NONE',  ( 4.574695292857163663E-14, -1.604587108957105605E-15, 13.10244806971513754 ) ) ;
#106 = COORDINATED_UNIVERSAL_TIME_OFFSET ( 1, 0, .AHEAD. ) ;
#107 = CARTESIAN_POINT ( 'NONE',  ( 1.316288464743861212E-13, 1.499999999999998668, 37.69999999999999574 ) ) ;
#108 = AXIS2_PLACEMENT_3D ( 'NONE', #186, #164, #215 ) ;
#109 = APPROVAL_STATUS ( 'not_yet_approved' ) ;
#110 = FACE_BOUND ( 'NONE', #184, .T. ) ;
#111 = DATE_TIME_ROLE ( 'classification_date' ) ;
#112 = CARTESIAN_POINT ( 'NONE',  ( 0.0000000000000000000, 0.2207649730810375410, 0.0000000000000000000 ) ) ;
#113 = ORIENTED_EDGE ( 'NONE', *, *, #223, .F. ) ;
#114 = PERSON_AND_ORGANIZATION ( #87, #270 ) ;
#115 = APPROVAL ( #174, 'UNSPECIFIED' ) ;
#116 = ORIENTED_EDGE ( 'NONE', *, *, #73, .F. ) ;
#117 = EDGE_LOOP ( 'NONE', ( #267 ) ) ;
#118 = FACE_BOUND ( 'NONE', #167, .T. ) ;
#119 = ADVANCED_FACE ( 'NONE', ( #272, #45 ), #49, .T. ) ;
#120 = DIRECTION ( 'NONE',  ( -3.491481338843133355E-15, 1.224646799147352961E-16, -1.000000000000000000 ) ) ;
#121 = CC_DESIGN_SECURITY_CLASSIFICATION ( #19, ( #227 ) ) ;
#122 = CARTESIAN_POINT ( 'NONE',  ( 1.326762908760390423E-13, 8.998558695971099120E-33, 38.00000000000000000 ) ) ;
#123 = FACE_OUTER_BOUND ( 'NONE', #90, .T. ) ;
#124 = PERSON_AND_ORGANIZATION ( #87, #270 ) ;
#125 = DESIGN_CONTEXT ( 'detailed design', #64, 'design' ) ;
#126 = CARTESIAN_POINT ( 'NONE',  ( 0.0000000000000000000, 0.0000000000000000000, 0.0000000000000000000 ) ) ;
#127 = CC_DESIGN_DATE_AND_TIME_ASSIGNMENT ( #81, #35, ( #154 ) ) ;
#128 = CARTESIAN_POINT ( 'NONE',  ( 4.574695292857163663E-14, -1.604587108957105605E-15, 13.10244806971513754 ) ) ;
#129 = DIRECTION ( 'NONE',  ( -4.275831445896957731E-31, -1.000000000000000000, -1.224646799147352961E-16 ) ) ;
#130 = APPROVAL_DATE_TIME ( #18, #282 ) ;
#131 = VERTEX_POINT ( 'NONE', #107 ) ;
#132 = CARTESIAN_POINT ( 'NONE',  ( 0.0000000000000000000, 0.0000000000000000000, 0.0000000000000000000 ) ) ;
#133 = CARTESIAN_POINT ( 'NONE',  ( 1.326762908760390423E-13, -4.653657836759941152E-15, 38.00000000000000000 ) ) ;
#134 = AXIS2_PLACEMENT_3D ( 'NONE', #257, #52, #156 ) ;
#135 = PERSON_AND_ORGANIZATION ( #87, #270 ) ;
#136 = EDGE_LOOP ( 'NONE', ( #143 ) ) ;
#137 = PERSON_AND_ORGANIZATION ( #87, #270 ) ;
#138 = CC_DESIGN_PERSON_AND_ORGANIZATION_ASSIGNMENT ( #91, #141, ( #19 ) ) ;
#139 = AXIS2_PLACEMENT_3D ( 'NONE', #47, #6, #71 ) ;
#140 = ORIENTED_EDGE ( 'NONE', *, *, #13, .F. ) ;
#141 = PERSON_AND_ORGANIZATION_ROLE ( 'classification_officer' ) ;
#142 = EDGE_LOOP ( 'NONE', ( #92 ) ) ;
#143 = ORIENTED_EDGE ( 'NONE', *, *, #228, .T. ) ;
#144 = CC_DESIGN_APPROVAL ( #115, ( #227 ) ) ;
#145 = SHAPE_DEFINITION_REPRESENTATION ( #242, #31 ) ;
#146 = FACE_OUTER_BOUND ( 'NONE', #260, .T. ) ;
#147 = DIRECTION ( 'NONE',  ( 3.491481338843133355E-15, -1.224646799147352961E-16, 1.000000000000000000 ) ) ;
#148 = CC_DESIGN_APPROVAL ( #4, ( #19 ) ) ;
#149 = DIRECTION ( 'NONE',  ( -3.491481338843133355E-15, 1.224646799147352961E-16, -1.000000000000000000 ) ) ;
#150 = PERSON_AND_ORGANIZATION ( #87, #270 ) ;
#151 = DIRECTION ( 'NONE',  ( 0.0000000000000000000, 1.000000000000000000, 0.0000000000000000000 ) ) ;
#152 = TOROIDAL_SURFACE ( 'NONE', #230, 2.278500000000000192, 2.000000000000000000 ) ;
#153 = DIRECTION ( 'NONE',  ( -3.491481338843133355E-15, 1.224646799147352961E-16, -1.000000000000000000 ) ) ;
#154 = PRODUCT_DEFINITION ( 'UNKNOWN', '', #227, #125 ) ;
#155 = CALENDAR_DATE ( 2021, 26, 11 ) ;
#156 = DIRECTION ( 'NONE',  ( 0.0000000000000000000, 1.000000000000000000, 0.0000000000000000000 ) ) ;
#157 = CC_DESIGN_APPROVAL ( #282, ( #154 ) ) ;
#158 = ORIENTED_EDGE ( 'NONE', *, *, #165, .F. ) ;
#159 = APPLICATION_PROTOCOL_DEFINITION ( 'international standard', 'config_control_design', 1994, #102 ) ;
#160 = CIRCLE ( 'NONE', #134, 1.200000000000003286 ) ;
#161 = ADVANCED_FACE ( 'NONE', ( #146, #205 ), #27, .T. ) ;
#162 = ORIENTED_EDGE ( 'NONE', *, *, #228, .F. ) ;
#163 = DATE_AND_TIME ( #99, #243 ) ;
#164 = DIRECTION ( 'NONE',  ( -3.491481338843133355E-15, 1.224646799147352961E-16, -1.000000000000000000 ) ) ;
#165 = EDGE_CURVE ( 'NONE', #192, #192, #97, .T. ) ;
#166 = AXIS2_PLACEMENT_3D ( 'NONE', #57, #275, #30 ) ;
#167 = EDGE_LOOP ( 'NONE', ( #180 ) ) ;
#168 = ADVANCED_FACE ( 'NONE', ( #279, #37 ), #86, .T. ) ;
#169 = CIRCLE ( 'NONE', #175, 0.2784999999999999698 ) ;
#170 = VERTEX_POINT ( 'NONE', #67 ) ;
#171 = DATE_AND_TIME ( #252, #206 ) ;
#172 = CARTESIAN_POINT ( 'NONE',  ( -4.719769070262478427E-32, 1.655472140236837749E-33, -1.351795588237720743E-17 ) ) ;
#173 = ADVANCED_FACE ( 'NONE', ( #33, #28 ), #201, .T. ) ;
#174 = APPROVAL_STATUS ( 'not_yet_approved' ) ;
#175 = AXIS2_PLACEMENT_3D ( 'NONE', #232, #10, #195 ) ;
#176 = CARTESIAN_POINT ( 'NONE',  ( 1.396592535537253342E-14, 2.088415497356626784E-33, 4.000000000000000000 ) ) ;
#177 = ADVANCED_FACE ( 'NONE', ( #78, #110 ), #210, .T. ) ;
#178 = CARTESIAN_POINT ( 'NONE',  ( 1.396592535537253342E-14, 0.2784999999999992482, 4.000000000000000000 ) ) ;
#179 = FACE_OUTER_BOUND ( 'NONE', #21, .T. ) ;
#180 = ORIENTED_EDGE ( 'NONE', *, *, #220, .F. ) ;
#181 = DIRECTION ( 'NONE',  ( 0.0000000000000000000, 0.0000000000000000000, 1.000000000000000000 ) ) ;
#182 = EDGE_LOOP ( 'NONE', ( #237 ) ) ;
#183 = VERTEX_POINT ( 'NONE', #224 ) ;
#184 = EDGE_LOOP ( 'NONE', ( #263 ) ) ;
#185 = CC_DESIGN_PERSON_AND_ORGANIZATION_ASSIGNMENT ( #124, #254, ( #227 ) ) ;
#186 = CARTESIAN_POINT ( 'NONE',  ( 2.216146677675516085E-14, -7.773196164799255877E-16, 6.347296355333846840 ) ) ;
#187 = CARTESIAN_POINT ( 'NONE',  ( 0.0000000000000000000, 0.0000000000000000000, 0.0000000000000000000 ) ) ;
#188 = CC_DESIGN_PERSON_AND_ORGANIZATION_ASSIGNMENT ( #240, #39, ( #42 ) ) ;
#189 = AXIS2_PLACEMENT_3D ( 'NONE', #172, #15, #60 ) ;
#190 = APPROVAL_PERSON_ORGANIZATION ( #137, #282, #59 ) ;
#191 = DIRECTION ( 'NONE',  ( 4.275831445896957731E-31, 1.000000000000000000, 1.224646799147352961E-16 ) ) ;
#192 = VERTEX_POINT ( 'NONE', #274 ) ;
#193 = ADVANCED_FACE ( 'NONE', ( #233 ), #217, .T. ) ;
#194 = FACE_OUTER_BOUND ( 'NONE', #244, .T. ) ;
#195 = DIRECTION ( 'NONE',  ( 0.0000000000000000000, 1.000000000000000000, 0.0000000000000000000 ) ) ;
#196 = DIRECTION ( 'NONE',  ( 0.0000000000000000000, -1.000000000000000000, 0.0000000000000000000 ) ) ;
#197 = ADVANCED_FACE ( 'NONE', ( #179 ), #211, .F. ) ;
#198 = VERTEX_POINT ( 'NONE', #112 ) ;
#199 = EDGE_LOOP ( 'NONE', ( #116 ) ) ;
#200 =( LENGTH_UNIT ( ) NAMED_UNIT ( * ) SI_UNIT ( .MILLI., .METRE. ) );
#201 = CONICAL_SURFACE ( 'NONE', #256, 1.499999999999996891, 0.1745329251994260367 ) ;
#202 = ORIENTED_EDGE ( 'NONE', *, *, #212, .F. ) ;
#203 = ADVANCED_FACE ( 'NONE', ( #194 ), #50, .F. ) ;
#204 = CARTESIAN_POINT ( 'NONE',  ( 2.094888803305880013E-14, -8.673617379884035472E-16, 6.000000000000000000 ) ) ;
#205 = FACE_OUTER_BOUND ( 'NONE', #142, .T. ) ;
#206 = LOCAL_TIME ( 15, 47, 14.00000000000000000, #106 ) ;
#207 = ORIENTED_EDGE ( 'NONE', *, *, #220, .T. ) ;
#208 = PERSON_AND_ORGANIZATION_ROLE ( 'design_supplier' ) ;
#209 = DIRECTION ( 'NONE',  ( -3.491481338843133355E-15, 1.224646799147352961E-16, -1.000000000000000000 ) ) ;
#210 = CONICAL_SURFACE ( 'NONE', #281, 1.200000000000003286, 0.7853981633974453924 ) ;
#211 = PLANE ( 'NONE',  #189 ) ;
#212 = EDGE_CURVE ( 'NONE', #170, #170, #160, .T. ) ;
#213 = CARTESIAN_POINT ( 'NONE',  ( 1.396592535537253342E-14, -4.898587196589411843E-16, 4.000000000000000000 ) ) ;
#214 = PERSON_AND_ORGANIZATION_ROLE ( 'creator' ) ;
#215 = DIRECTION ( 'NONE',  ( 0.0000000000000000000, 1.000000000000000000, 0.0000000000000000000 ) ) ;
#216 = CLOSED_SHELL ( 'NONE', ( #203, #119, #29, #173, #161, #177, #100 ) ) ;
#217 = PLANE ( 'NONE',  #5 ) ;
#218 = APPLICATION_PROTOCOL_DEFINITION ( 'international standard', 'config_control_design', 1994, #64 ) ;
#219 = COORDINATED_UNIVERSAL_TIME_OFFSET ( 1, 0, .AHEAD. ) ;
#220 = EDGE_CURVE ( 'NONE', #198, #198, #1, .T. ) ;
#221 =( GEOMETRIC_REPRESENTATION_CONTEXT ( 3 ) GLOBAL_UNCERTAINTY_ASSIGNED_CONTEXT ( ( #7 ) ) GLOBAL_UNIT_ASSIGNED_CONTEXT ( ( #200, #266, #24 ) ) REPRESENTATION_CONTEXT ( 'NONE', 'WORKASPACE' ) );
#222 = CARTESIAN_POINT ( 'NONE',  ( 3.491481338843133355E-16, 0.2784999999999993037, 0.1000000000000000056 ) ) ;
#223 = EDGE_CURVE ( 'NONE', #183, #183, #169, .T. ) ;
#224 = CARTESIAN_POINT ( 'NONE',  ( 2.094888803305880013E-14, 0.2784999999999992482, 6.000000000000000000 ) ) ;
#225 = EDGE_LOOP ( 'NONE', ( #140 ) ) ;
#226 = ORIENTED_EDGE ( 'NONE', *, *, #223, .T. ) ;
#227 = PRODUCT_DEFINITION_FORMATION_WITH_SPECIFIED_SOURCE ( 'ANY', '', #42, .NOT_KNOWN. ) ;
#228 = EDGE_CURVE ( 'NONE', #262, #262, #36, .T. ) ;
#229 = DIRECTION ( 'NONE',  ( 0.0000000000000000000, 1.000000000000000000, 0.0000000000000000000 ) ) ;
#230 = AXIS2_PLACEMENT_3D ( 'NONE', #204, #26, #76 ) ;
#231 = DIRECTION ( 'NONE',  ( -3.457683921700611424E-31, -1.000000000000000000, -1.459877252000233957E-16 ) ) ;
#232 = CARTESIAN_POINT ( 'NONE',  ( 2.094888803305880013E-14, -7.347880794884118750E-16, 6.000000000000000000 ) ) ;
#233 = FACE_OUTER_BOUND ( 'NONE', #68, .T. ) ;
#234 = DIRECTION ( 'NONE',  ( 3.491481338843133355E-15, -1.224646799147352961E-16, 1.000000000000000000 ) ) ;
#235 = CALENDAR_DATE ( 2021, 26, 11 ) ;
#236 = AXIS2_PLACEMENT_3D ( 'NONE', #246, #69, #229 ) ;
#237 = ORIENTED_EDGE ( 'NONE', *, *, #165, .T. ) ;
#238 = APPROVAL_STATUS ( 'not_yet_approved' ) ;
#239 = EDGE_CURVE ( 'NONE', #93, #93, #70, .T. ) ;
#240 = PERSON_AND_ORGANIZATION ( #87, #270 ) ;
#241 = ORIENTED_EDGE ( 'NONE', *, *, #239, .F. ) ;
#242 = PRODUCT_DEFINITION_SHAPE ( 'NONE', 'NONE',  #154 ) ;
#243 = LOCAL_TIME ( 15, 47, 14.00000000000000000, #268 ) ;
#244 = EDGE_LOOP ( 'NONE', ( #38 ) ) ;
#245 = AXIS2_PLACEMENT_3D ( 'NONE', #12, #209, #85 ) ;
#246 = CARTESIAN_POINT ( 'NONE',  ( 1.396592535537253342E-14, -4.898587196589411843E-16, 4.000000000000000000 ) ) ;
#247 = FACE_OUTER_BOUND ( 'NONE', #182, .T. ) ;
#248 = EDGE_CURVE ( 'NONE', #20, #20, #25, .T. ) ;
#249 = AXIS2_PLACEMENT_3D ( 'NONE', #122, #120, #191 ) ;
#250 = ORIENTED_EDGE ( 'NONE', *, *, #248, .F. ) ;
#251 = DIRECTION ( 'NONE',  ( 0.0000000000000000000, 1.000000000000000000, 0.0000000000000000000 ) ) ;
#252 = CALENDAR_DATE ( 2021, 26, 11 ) ;
#253 = CARTESIAN_POINT ( 'NONE',  ( 1.396592535537253342E-14, 2.088415497356626784E-33, 4.000000000000000000 ) ) ;
#254 = PERSON_AND_ORGANIZATION_ROLE ( 'creator' ) ;
#255 = APPROVAL_ROLE ( '' ) ;
#256 = AXIS2_PLACEMENT_3D ( 'NONE', #128, #234, #196 ) ;
#257 = CARTESIAN_POINT ( 'NONE',  ( 1.326762908760390423E-13, -4.653657836759941152E-15, 38.00000000000000000 ) ) ;
#258 = CLOSED_SHELL ( 'NONE', ( #197, #3, #168, #193 ) ) ;
#259 = APPROVAL_PERSON_ORGANIZATION ( #16, #115, #255 ) ;
#260 = EDGE_LOOP ( 'NONE', ( #162 ) ) ;
#261 = CALENDAR_DATE ( 2021, 26, 11 ) ;
#262 = VERTEX_POINT ( 'NONE', #65 ) ;
#263 = ORIENTED_EDGE ( 'NONE', *, *, #212, .T. ) ;
#264 = AXIS2_PLACEMENT_3D ( 'NONE', #176, #82, #129 ) ;
#265 = EDGE_LOOP ( 'NONE', ( #241 ) ) ;
#266 =( NAMED_UNIT ( * ) PLANE_ANGLE_UNIT ( ) SI_UNIT ( $, .RADIAN. ) );
#267 = ORIENTED_EDGE ( 'NONE', *, *, #248, .T. ) ;
#268 = COORDINATED_UNIVERSAL_TIME_OFFSET ( 1, 0, .AHEAD. ) ;
#269 = DIRECTION ( 'NONE',  ( 4.275831445896957731E-31, 1.000000000000000000, 1.224646799147353207E-16 ) ) ;
#270 = ORGANIZATION ( 'UNSPECIFIED', 'UNSPECIFIED', '' ) ;
#271 = FACE_OUTER_BOUND ( 'NONE', #23, .T. ) ;
#272 = FACE_OUTER_BOUND ( 'NONE', #199, .T. ) ;
#273 = AXIS2_PLACEMENT_3D ( 'NONE', #105, #8, #151 ) ;
#274 = CARTESIAN_POINT ( 'NONE',  ( 2.216146677675516085E-14, 0.3088844939755805430, 6.347296355333846840 ) ) ;
#275 = DIRECTION ( 'NONE',  ( -3.491481338843133355E-15, 1.224646799147352961E-16, -1.000000000000000000 ) ) ;
#276 = COORDINATED_UNIVERSAL_TIME_OFFSET ( 1, 0, .AHEAD. ) ;
#277 = VERTEX_POINT ( 'NONE', #178 ) ;
#278 = DIRECTION ( 'NONE',  ( 3.491481338843133355E-15, -1.224646799147352961E-16, 1.000000000000000000 ) ) ;
#279 = FACE_OUTER_BOUND ( 'NONE', #265, .T. ) ;
#280 = COORDINATED_UNIVERSAL_TIME_OFFSET ( 1, 0, .AHEAD. ) ;
#281 = AXIS2_PLACEMENT_3D ( 'NONE', #133, #153, #251 ) ;
#282 = APPROVAL ( #109, 'UNSPECIFIED' ) ;
#283 = EDGE_LOOP ( 'NONE', ( #226 ) ) ;
ENDSEC;
END-ISO-10303-21;
