ISO-10303-21;
HEADER;
FILE_DESCRIPTION (( 'STEP AP203' ),
    '1' );
FILE_NAME ('200000.step',
    '2021-11-26T14:47:14',
    ( '' ),
    ( '' ),
    'SwSTEP 2.0',
    'SolidWorks 2019',
    '' );
FILE_SCHEMA (( 'CONFIG_CONTROL_DESIGN' ));
ENDSEC;

DATA;
#1 = EDGE_LOOP ( 'NONE', ( #191 ) ) ;
#2 = DIRECTION ( 'NONE',  ( 3.654516023505199634E-31, 1.000000000000000000, 1.028654812604845242E-16 ) ) ;
#3 = EDGE_LOOP ( 'NONE', ( #109 ) ) ;
#4 = CYLINDRICAL_SURFACE ( 'NONE', #152, 0.2635000000000000675 ) ;
#5 = ADVANCED_FACE ( 'NONE', ( #19, #265 ), #124, .T. ) ;
#6 = DIRECTION ( 'NONE',  ( 3.491481338843133355E-15, -1.224646799147352961E-16, 1.000000000000000000 ) ) ;
#7 = MANIFOLD_SOLID_BREP ( 'Corps-Déplacer/Copier1[2]', #98 ) ;
#8 = FACE_OUTER_BOUND ( 'NONE', #212, .T. ) ;
#9 = PERSON_AND_ORGANIZATION ( #88, #280 ) ;
#10 = PLANE ( 'NONE',  #81 ) ;
#11 = DIRECTION ( 'NONE',  ( -3.491481338843133355E-15, 1.224646799147352961E-16, -1.000000000000000000 ) ) ;
#12 = PERSON_AND_ORGANIZATION_ROLE ( 'creator' ) ;
#13 = PERSON_AND_ORGANIZATION ( #88, #280 ) ;
#14 = COORDINATED_UNIVERSAL_TIME_OFFSET ( 1, 0, .AHEAD. ) ;
#15 = LOCAL_TIME ( 15, 47, 14.00000000000000000, #270 ) ;
#16 = CC_DESIGN_DATE_AND_TIME_ASSIGNMENT ( #208, #47, ( #184 ) ) ;
#17 = DIRECTION ( 'NONE',  ( -3.491481338843133355E-15, 1.224646799147352961E-16, -1.000000000000000000 ) ) ;
#18 = ORIENTED_EDGE ( 'NONE', *, *, #36, .T. ) ;
#19 = FACE_OUTER_BOUND ( 'NONE', #23, .T. ) ;
#20 = AXIS2_PLACEMENT_3D ( 'NONE', #258, #168, #171 ) ;
#21 = ORIENTED_EDGE ( 'NONE', *, *, #156, .F. ) ;
#22 = DIRECTION ( 'NONE',  ( -4.275831445896957731E-31, -1.000000000000000000, -1.224646799147352961E-16 ) ) ;
#23 = EDGE_LOOP ( 'NONE', ( #26 ) ) ;
#24 = APPLICATION_CONTEXT ( 'configuration controlled 3d designs of mechanical parts and assemblies' ) ;
#25 = CARTESIAN_POINT ( 'NONE',  ( 3.491481338843133355E-16, -1.224646799147352807E-17, 0.09999999999999999167 ) ) ;
#26 = ORIENTED_EDGE ( 'NONE', *, *, #211, .F. ) ;
#27 = PLANE ( 'NONE',  #20 ) ;
#28 = CARTESIAN_POINT ( 'NONE',  ( 3.491481338843134341E-16, 0.2634999999999994014, 0.1000000000000000194 ) ) ;
#29 = DIRECTION ( 'NONE',  ( 4.275831445896957731E-31, 1.000000000000000000, 1.224646799147353207E-16 ) ) ;
#30 = CALENDAR_DATE ( 2021, 26, 11 ) ;
#31 = AXIS2_PLACEMENT_3D ( 'NONE', #86, #17, #64 ) ;
#32 = APPLICATION_PROTOCOL_DEFINITION ( 'international standard', 'config_control_design', 1994, #78 ) ;
#33 = CALENDAR_DATE ( 2021, 26, 11 ) ;
#34 = APPROVAL_PERSON_ORGANIZATION ( #232, #100, #57 ) ;
#35 = AXIS2_PLACEMENT_3D ( 'NONE', #87, #119, #170 ) ;
#36 = EDGE_CURVE ( 'NONE', #269, #269, #117, .T. ) ;
#37 = DIRECTION ( 'NONE',  ( 0.0000000000000000000, 1.000000000000000000, 0.0000000000000000000 ) ) ;
#38 = CARTESIAN_POINT ( 'NONE',  ( 1.326762908760390423E-13, -4.653657836759941152E-15, 38.00000000000000000 ) ) ;
#39 =( GEOMETRIC_REPRESENTATION_CONTEXT ( 3 ) GLOBAL_UNCERTAINTY_ASSIGNED_CONTEXT ( ( #59 ) ) GLOBAL_UNIT_ASSIGNED_CONTEXT ( ( #70, #51, #225 ) ) REPRESENTATION_CONTEXT ( 'NONE', 'WORKASPACE' ) );
#40 = CARTESIAN_POINT ( 'NONE',  ( 2.094888803305880013E-14, -8.673617379884035472E-16, 6.000000000000000000 ) ) ;
#41 = ORIENTED_EDGE ( 'NONE', *, *, #173, .F. ) ;
#42 = DIRECTION ( 'NONE',  ( 0.0000000000000000000, 1.000000000000000000, 0.0000000000000000000 ) ) ;
#43 = FACE_BOUND ( 'NONE', #210, .T. ) ;
#44 = CLOSED_SHELL ( 'NONE', ( #84, #163, #122, #238, #253, #5, #77 ) ) ;
#45 = LOCAL_TIME ( 15, 47, 14.00000000000000000, #271 ) ;
#46 = VERTEX_POINT ( 'NONE', #111 ) ;
#47 = DATE_TIME_ROLE ( 'creation_date' ) ;
#48 = CC_DESIGN_PERSON_AND_ORGANIZATION_ASSIGNMENT ( #74, #12, ( #276 ) ) ;
#49 = CARTESIAN_POINT ( 'NONE',  ( 4.604397054817937069E-14, 1.499999999999995559, 13.18751729700940167 ) ) ;
#50 = APPROVAL_ROLE ( '' ) ;
#51 =( NAMED_UNIT ( * ) PLANE_ANGLE_UNIT ( ) SI_UNIT ( $, .RADIAN. ) );
#52 = COORDINATED_UNIVERSAL_TIME_OFFSET ( 1, 0, .AHEAD. ) ;
#53 = CIRCLE ( 'NONE', #31, 0.2057649730810377220 ) ;
#54 = MECHANICAL_CONTEXT ( 'NONE', #78, 'mechanical' ) ;
#55 = APPLICATION_PROTOCOL_DEFINITION ( 'international standard', 'config_control_design', 1994, #24 ) ;
#56 = CONICAL_SURFACE ( 'NONE', #263, 0.2634999999999994014, 0.5235987755982920433 ) ;
#57 = APPROVAL_ROLE ( '' ) ;
#58 = CC_DESIGN_PERSON_AND_ORGANIZATION_ASSIGNMENT ( #158, #247, ( #276 ) ) ;
#59 = UNCERTAINTY_MEASURE_WITH_UNIT (LENGTH_MEASURE( 1.000000000000000082E-05 ), #70, 'distance_accuracy_value', 'NONE');
#60 = AXIS2_PLACEMENT_3D ( 'NONE', #40, #215, #126 ) ;
#61 = ORIENTED_EDGE ( 'NONE', *, *, #150, .T. ) ;
#62 = FACE_OUTER_BOUND ( 'NONE', #193, .T. ) ;
#63 = ORIENTED_EDGE ( 'NONE', *, *, #186, .F. ) ;
#64 = DIRECTION ( 'NONE',  ( 4.275831445896957731E-31, 1.000000000000000000, 1.224646799147352961E-16 ) ) ;
#65 = CARTESIAN_POINT ( 'NONE',  ( 1.396592535537253342E-14, -4.898587196589411843E-16, 4.000000000000000000 ) ) ;
#66 = ORIENTED_EDGE ( 'NONE', *, *, #173, .T. ) ;
#67 = EDGE_CURVE ( 'NONE', #46, #46, #104, .T. ) ;
#68 = FACE_OUTER_BOUND ( 'NONE', #3, .T. ) ;
#69 = CARTESIAN_POINT ( 'NONE',  ( 2.094888803305880013E-14, -7.347880794884118750E-16, 6.000000000000000000 ) ) ;
#70 =( LENGTH_UNIT ( ) NAMED_UNIT ( * ) SI_UNIT ( .MILLI., .METRE. ) );
#71 = ADVANCED_FACE ( 'NONE', ( #89, #165 ), #146, .T. ) ;
#72 = VERTEX_POINT ( 'NONE', #268 ) ;
#73 = CARTESIAN_POINT ( 'NONE',  ( 1.316288464743861212E-13, -4.616918432785520292E-15, 37.69999999999999574 ) ) ;
#74 = PERSON_AND_ORGANIZATION ( #88, #280 ) ;
#75 = AXIS2_PLACEMENT_3D ( 'NONE', #194, #91, #101 ) ;
#76 = CARTESIAN_POINT ( 'NONE',  ( -6.765001494799160778E-32, 2.372843106639061733E-33, -1.937573436105110652E-17 ) ) ;
#77 = ADVANCED_FACE ( 'NONE', ( #62 ), #27, .F. ) ;
#78 = APPLICATION_CONTEXT ( 'configuration controlled 3d designs of mechanical parts and assemblies' ) ;
#79 = DATE_TIME_ROLE ( 'classification_date' ) ;
#80 = DIRECTION ( 'NONE',  ( 1.000000000000000000, 0.0000000000000000000, 0.0000000000000000000 ) ) ;
#81 = AXIS2_PLACEMENT_3D ( 'NONE', #76, #175, #244 ) ;
#82 = CALENDAR_DATE ( 2021, 26, 11 ) ;
#83 = DIRECTION ( 'NONE',  ( 3.491481338843133355E-15, -1.224646799147352961E-16, 1.000000000000000000 ) ) ;
#84 = ADVANCED_FACE ( 'NONE', ( #220 ), #141, .F. ) ;
#85 = CIRCLE ( 'NONE', #75, 0.2634999999999999010 ) ;
#86 = CARTESIAN_POINT ( 'NONE',  ( -1.353000298959832156E-31, 4.745686213278123467E-33, -3.875146872210221303E-17 ) ) ;
#87 = CARTESIAN_POINT ( 'NONE',  ( 0.0000000000000000000, 0.0000000000000000000, 0.0000000000000000000 ) ) ;
#88 = PERSON ( 'UNSPECIFIED', 'UNSPECIFIED', 'UNSPECIFIED', ('UNSPECIFIED'), ('UNSPECIFIED'), ('UNSPECIFIED') ) ;
#89 = FACE_OUTER_BOUND ( 'NONE', #240, .T. ) ;
#90 = AXIS2_PLACEMENT_3D ( 'NONE', #65, #149, #123 ) ;
#91 = DIRECTION ( 'NONE',  ( -3.491481338843133355E-15, 1.224646799147352961E-16, -1.000000000000000000 ) ) ;
#92 = CARTESIAN_POINT ( 'NONE',  ( 1.396592535537253342E-14, 0.2634999999999994014, 4.000000000000000000 ) ) ;
#93 = FACE_OUTER_BOUND ( 'NONE', #145, .T. ) ;
#94 = APPROVAL_STATUS ( 'not_yet_approved' ) ;
#95 = CARTESIAN_POINT ( 'NONE',  ( 3.491481338843133355E-16, -1.224646799147352807E-17, 0.09999999999999999167 ) ) ;
#96 = APPROVAL_DATE_TIME ( #224, #166 ) ;
#97 = FACE_OUTER_BOUND ( 'NONE', #259, .T. ) ;
#98 = CLOSED_SHELL ( 'NONE', ( #233, #262, #71, #203 ) ) ;
#99 = PERSON_AND_ORGANIZATION_ROLE ( 'creator' ) ;
#100 = APPROVAL ( #137, 'UNSPECIFIED' ) ;
#101 = DIRECTION ( 'NONE',  ( 0.0000000000000000000, 1.000000000000000000, 0.0000000000000000000 ) ) ;
#102 = ORIENTED_EDGE ( 'NONE', *, *, #150, .F. ) ;
#103 = DIRECTION ( 'NONE',  ( 4.275831445896957731E-31, 1.000000000000000000, 1.224646799147352961E-16 ) ) ;
#104 = CIRCLE ( 'NONE', #90, 0.2634999999999999010 ) ;
#105 = DIRECTION ( 'NONE',  ( -3.491481338843133355E-15, 1.224646799147352961E-16, -1.000000000000000000 ) ) ;
#106 = CC_DESIGN_PERSON_AND_ORGANIZATION_ASSIGNMENT ( #255, #99, ( #184 ) ) ;
#107 = DIRECTION ( 'NONE',  ( -3.491481338843133355E-15, 1.224646799147352961E-16, -1.000000000000000000 ) ) ;
#108 = ORIENTED_EDGE ( 'NONE', *, *, #278, .F. ) ;
#109 = ORIENTED_EDGE ( 'NONE', *, *, #67, .F. ) ;
#110 = AXIS2_PLACEMENT_3D ( 'NONE', #144, #83, #235 ) ;
#111 = CARTESIAN_POINT ( 'NONE',  ( 1.396592535537253342E-14, 0.2634999999999994014, 4.000000000000000000 ) ) ;
#112 = CARTESIAN_POINT ( 'NONE',  ( 2.094888803305880013E-14, 0.2634999999999994014, 6.000000000000000000 ) ) ;
#113 = DIRECTION ( 'NONE',  ( -3.491481338843133355E-15, 1.224646799147352961E-16, -1.000000000000000000 ) ) ;
#114 = APPROVAL_PERSON_ORGANIZATION ( #9, #166, #50 ) ;
#115 = CARTESIAN_POINT ( 'NONE',  ( 0.0000000000000000000, 0.0000000000000000000, 0.0000000000000000000 ) ) ;
#116 = PERSON_AND_ORGANIZATION ( #88, #280 ) ;
#117 = CIRCLE ( 'NONE', #231, 0.2938844939755821395 ) ;
#118 = CIRCLE ( 'NONE', #164, 1.499999999999996891 ) ;
#119 = DIRECTION ( 'NONE',  ( -3.491481338843133355E-15, 1.224646799147352961E-16, -1.000000000000000000 ) ) ;
#120 = ORIENTED_EDGE ( 'NONE', *, *, #186, .T. ) ;
#121 = FACE_OUTER_BOUND ( 'NONE', #1, .T. ) ;
#122 = ADVANCED_FACE ( 'NONE', ( #190, #260 ), #226, .F. ) ;
#123 = DIRECTION ( 'NONE',  ( 0.0000000000000000000, 1.000000000000000000, 0.0000000000000000000 ) ) ;
#124 = CONICAL_SURFACE ( 'NONE', #147, 1.200000000000003286, 0.7853981633974453924 ) ;
#125 = EDGE_LOOP ( 'NONE', ( #41 ) ) ;
#126 = DIRECTION ( 'NONE',  ( 4.400401843003839721E-31, 1.000000000000000000, 1.224646799147352961E-16 ) ) ;
#127 = EDGE_LOOP ( 'NONE', ( #167 ) ) ;
#128 = DIRECTION ( 'NONE',  ( -3.491481338843133355E-15, 1.224646799147352961E-16, -1.000000000000000000 ) ) ;
#129 = DIRECTION ( 'NONE',  ( 0.0000000000000000000, 1.000000000000000000, 0.0000000000000000000 ) ) ;
#130 = AXIS2_PLACEMENT_3D ( 'NONE', #25, #107, #2 ) ;
#131 = APPROVAL ( #181, 'UNSPECIFIED' ) ;
#132 = VERTEX_POINT ( 'NONE', #92 ) ;
#133 = VERTEX_POINT ( 'NONE', #112 ) ;
#134 = PRODUCT ( '200000', '200000', '', ( #54 ) ) ;
#135 = AXIS2_PLACEMENT_3D ( 'NONE', #151, #153, #223 ) ;
#136 = PERSON_AND_ORGANIZATION_ROLE ( 'classification_officer' ) ;
#137 = APPROVAL_STATUS ( 'not_yet_approved' ) ;
#138 = CIRCLE ( 'NONE', #273, 1.500000000000003331 ) ;
#139 = AXIS2_PLACEMENT_3D ( 'NONE', #69, #218, #264 ) ;
#140 = EDGE_LOOP ( 'NONE', ( #169 ) ) ;
#141 = PLANE ( 'NONE',  #250 ) ;
#142 = ORIENTED_EDGE ( 'NONE', *, *, #211, .T. ) ;
#143 = EDGE_CURVE ( 'NONE', #133, #133, #207, .T. ) ;
#144 = CARTESIAN_POINT ( 'NONE',  ( 1.396592535537253342E-14, 1.975933513656988695E-33, 4.000000000000000000 ) ) ;
#145 = EDGE_LOOP ( 'NONE', ( #142 ) ) ;
#146 = CYLINDRICAL_SURFACE ( 'NONE', #35, 0.2634999999999996234 ) ;
#147 = AXIS2_PLACEMENT_3D ( 'NONE', #38, #105, #281 ) ;
#148 = CARTESIAN_POINT ( 'NONE',  ( 0.0000000000000000000, 0.0000000000000000000, 0.0000000000000000000 ) ) ;
#149 = DIRECTION ( 'NONE',  ( -3.491481338843133355E-15, 1.224646799147352961E-16, -1.000000000000000000 ) ) ;
#150 = EDGE_CURVE ( 'NONE', #227, #227, #159, .T. ) ;
#151 = CARTESIAN_POINT ( 'NONE',  ( 4.604397054817937069E-14, -1.615005084648291577E-15, 13.18751729700940167 ) ) ;
#152 = AXIS2_PLACEMENT_3D ( 'NONE', #148, #241, #103 ) ;
#153 = DIRECTION ( 'NONE',  ( 3.491481338843133355E-15, -1.224646799147352961E-16, 1.000000000000000000 ) ) ;
#154 = ADVANCED_BREP_SHAPE_REPRESENTATION ( '200000', ( #196, #7, #254 ), #39 ) ;
#155 = PERSON_AND_ORGANIZATION ( #88, #280 ) ;
#156 = EDGE_CURVE ( 'NONE', #197, #197, #118, .T. ) ;
#157 = VERTEX_POINT ( 'NONE', #272 ) ;
#158 = PERSON_AND_ORGANIZATION ( #88, #280 ) ;
#159 = CIRCLE ( 'NONE', #130, 0.2634999999999994014 ) ;
#160 = CYLINDRICAL_SURFACE ( 'NONE', #204, 1.500000000000000000 ) ;
#161 = PERSON_AND_ORGANIZATION_ROLE ( 'design_owner' ) ;
#162 = APPROVAL_DATE_TIME ( #275, #100 ) ;
#163 = ADVANCED_FACE ( 'NONE', ( #68, #121 ), #4, .T. ) ;
#164 = AXIS2_PLACEMENT_3D ( 'NONE', #234, #209, #37 ) ;
#165 = FACE_OUTER_BOUND ( 'NONE', #283, .T. ) ;
#166 = APPROVAL ( #94, 'UNSPECIFIED' ) ;
#167 = ORIENTED_EDGE ( 'NONE', *, *, #143, .F. ) ;
#168 = DIRECTION ( 'NONE',  ( -3.491481338843133355E-15, 1.224646799147352961E-16, -1.000000000000000000 ) ) ;
#169 = ORIENTED_EDGE ( 'NONE', *, *, #278, .T. ) ;
#170 = DIRECTION ( 'NONE',  ( 4.275831445896957731E-31, 1.000000000000000000, 1.224646799147352961E-16 ) ) ;
#171 = DIRECTION ( 'NONE',  ( 4.275831445896957731E-31, 1.000000000000000000, 1.224646799147352961E-16 ) ) ;
#172 = CC_DESIGN_APPROVAL ( #131, ( #276 ) ) ;
#173 = EDGE_CURVE ( 'NONE', #72, #72, #53, .T. ) ;
#174 = CARTESIAN_POINT ( 'NONE',  ( 1.396592535537253342E-14, 1.975933513656988695E-33, 4.000000000000000000 ) ) ;
#175 = DIRECTION ( 'NONE',  ( 3.491481338843133355E-15, -1.224646799147352961E-16, 1.000000000000000000 ) ) ;
#176 = FACE_BOUND ( 'NONE', #125, .T. ) ;
#177 = LOCAL_TIME ( 15, 47, 14.00000000000000000, #52 ) ;
#178 = SHAPE_DEFINITION_REPRESENTATION ( #228, #154 ) ;
#179 = CC_DESIGN_SECURITY_CLASSIFICATION ( #195, ( #276 ) ) ;
#180 = CARTESIAN_POINT ( 'NONE',  ( 1.326762908760390423E-13, -4.653657836759941152E-15, 38.00000000000000000 ) ) ;
#181 = APPROVAL_STATUS ( 'not_yet_approved' ) ;
#182 = DIRECTION ( 'NONE',  ( -3.491481338843133355E-15, 1.224646799147352961E-16, -1.000000000000000000 ) ) ;
#183 = CC_DESIGN_APPROVAL ( #166, ( #195 ) ) ;
#184 = PRODUCT_DEFINITION ( 'UNKNOWN', '', #276, #217 ) ;
#185 = CALENDAR_DATE ( 2021, 26, 11 ) ;
#186 = EDGE_CURVE ( 'NONE', #132, #132, #85, .T. ) ;
#187 = APPROVAL_PERSON_ORGANIZATION ( #155, #131, #229 ) ;
#188 = FACE_OUTER_BOUND ( 'NONE', #282, .T. ) ;
#189 = LOCAL_TIME ( 15, 47, 14.00000000000000000, #14 ) ;
#190 = FACE_OUTER_BOUND ( 'NONE', #127, .T. ) ;
#191 = ORIENTED_EDGE ( 'NONE', *, *, #143, .T. ) ;
#192 = CARTESIAN_POINT ( 'NONE',  ( 2.216146677675516400E-14, -7.773196164799256863E-16, 6.347296355333847728 ) ) ;
#193 = EDGE_LOOP ( 'NONE', ( #108 ) ) ;
#194 = CARTESIAN_POINT ( 'NONE',  ( 1.396592535537253342E-14, -4.898587196589411843E-16, 4.000000000000000000 ) ) ;
#195 = SECURITY_CLASSIFICATION ( '', '', #199 ) ;
#196 = MANIFOLD_SOLID_BREP ( 'Corps-Déplacer/Copier1[1]', #44 ) ;
#197 = VERTEX_POINT ( 'NONE', #49 ) ;
#198 = FACE_OUTER_BOUND ( 'NONE', #257, .T. ) ;
#199 = SECURITY_CLASSIFICATION_LEVEL ( 'unclassified' ) ;
#200 = DIRECTION ( 'NONE',  ( -3.654516023505199634E-31, -1.000000000000000000, -1.028654812604845242E-16 ) ) ;
#201 = CC_DESIGN_APPROVAL ( #100, ( #184 ) ) ;
#202 = CARTESIAN_POINT ( 'NONE',  ( 0.0000000000000000000, 0.0000000000000000000, 0.0000000000000000000 ) ) ;
#203 = ADVANCED_FACE ( 'NONE', ( #188 ), #279, .T. ) ;
#204 = AXIS2_PLACEMENT_3D ( 'NONE', #115, #11, #29 ) ;
#205 = DIRECTION ( 'NONE',  ( 0.0000000000000000000, 0.0000000000000000000, 1.000000000000000000 ) ) ;
#206 = PRODUCT_RELATED_PRODUCT_CATEGORY ( 'detail', '', ( #134 ) ) ;
#207 = CIRCLE ( 'NONE', #139, 0.2635000000000001785 ) ;
#208 = DATE_AND_TIME ( #82, #237 ) ;
#209 = DIRECTION ( 'NONE',  ( -3.491481338843133355E-15, 1.224646799147352961E-16, -1.000000000000000000 ) ) ;
#210 = EDGE_LOOP ( 'NONE', ( #213 ) ) ;
#211 = EDGE_CURVE ( 'NONE', #157, #157, #138, .T. ) ;
#212 = EDGE_LOOP ( 'NONE', ( #21 ) ) ;
#213 = ORIENTED_EDGE ( 'NONE', *, *, #36, .F. ) ;
#214 = CIRCLE ( 'NONE', #256, 1.200000000000003286 ) ;
#215 = DIRECTION ( 'NONE',  ( -3.491481338843133355E-15, 1.224646799147352961E-16, -1.000000000000000000 ) ) ;
#216 = EDGE_LOOP ( 'NONE', ( #18 ) ) ;
#217 = DESIGN_CONTEXT ( 'detailed design', #24, 'design' ) ;
#218 = DIRECTION ( 'NONE',  ( -3.491481338843133355E-15, 1.224646799147352961E-16, -1.000000000000000000 ) ) ;
#219 = ORIENTED_EDGE ( 'NONE', *, *, #67, .T. ) ;
#220 = FACE_OUTER_BOUND ( 'NONE', #242, .T. ) ;
#221 = FACE_OUTER_BOUND ( 'NONE', #261, .T. ) ;
#222 = CC_DESIGN_DATE_AND_TIME_ASSIGNMENT ( #245, #79, ( #195 ) ) ;
#223 = DIRECTION ( 'NONE',  ( 0.0000000000000000000, -1.000000000000000000, 0.0000000000000000000 ) ) ;
#224 = DATE_AND_TIME ( #30, #45 ) ;
#225 =( NAMED_UNIT ( * ) SI_UNIT ( $, .STERADIAN. ) SOLID_ANGLE_UNIT ( ) );
#226 = TOROIDAL_SURFACE ( 'NONE', #60, 2.263500000000000512, 2.000000000000000000 ) ;
#227 = VERTEX_POINT ( 'NONE', #28 ) ;
#228 = PRODUCT_DEFINITION_SHAPE ( 'NONE', 'NONE',  #184 ) ;
#229 = APPROVAL_ROLE ( '' ) ;
#230 = APPROVAL_DATE_TIME ( #252, #131 ) ;
#231 = AXIS2_PLACEMENT_3D ( 'NONE', #192, #128, #42 ) ;
#232 = PERSON_AND_ORGANIZATION ( #88, #280 ) ;
#233 = ADVANCED_FACE ( 'NONE', ( #221 ), #10, .F. ) ;
#234 = CARTESIAN_POINT ( 'NONE',  ( 4.604397054817937069E-14, -1.615005084648291577E-15, 13.18751729700940167 ) ) ;
#235 = DIRECTION ( 'NONE',  ( -4.275831445896957731E-31, -1.000000000000000000, -1.224646799147352961E-16 ) ) ;
#236 = ORIENTED_EDGE ( 'NONE', *, *, #156, .T. ) ;
#237 = LOCAL_TIME ( 15, 47, 14.00000000000000000, #277 ) ;
#238 = ADVANCED_FACE ( 'NONE', ( #43, #198 ), #267, .T. ) ;
#239 = DIRECTION ( 'NONE',  ( 3.491481338843133355E-15, -1.224646799147352961E-16, 1.000000000000000000 ) ) ;
#240 = EDGE_LOOP ( 'NONE', ( #102 ) ) ;
#241 = DIRECTION ( 'NONE',  ( -3.491481338843133355E-15, 1.224646799147352961E-16, -1.000000000000000000 ) ) ;
#242 = EDGE_LOOP ( 'NONE', ( #219 ) ) ;
#243 = CARTESIAN_POINT ( 'NONE',  ( 2.216146677675516400E-14, 0.2938844939755813623, 6.347296355333847728 ) ) ;
#244 = DIRECTION ( 'NONE',  ( -4.275831445896957731E-31, -1.000000000000000000, -1.224646799147352961E-16 ) ) ;
#245 = DATE_AND_TIME ( #251, #177 ) ;
#246 = VERTEX_POINT ( 'NONE', #266 ) ;
#247 = PERSON_AND_ORGANIZATION_ROLE ( 'design_supplier' ) ;
#248 = DIRECTION ( 'NONE',  ( 0.0000000000000000000, 1.000000000000000000, 0.0000000000000000000 ) ) ;
#249 = CC_DESIGN_PERSON_AND_ORGANIZATION_ASSIGNMENT ( #116, #136, ( #195 ) ) ;
#250 = AXIS2_PLACEMENT_3D ( 'NONE', #174, #239, #22 ) ;
#251 = CALENDAR_DATE ( 2021, 26, 11 ) ;
#252 = DATE_AND_TIME ( #33, #15 ) ;
#253 = ADVANCED_FACE ( 'NONE', ( #8, #93 ), #160, .T. ) ;
#254 = AXIS2_PLACEMENT_3D ( 'NONE', #202, #205, #80 ) ;
#255 = PERSON_AND_ORGANIZATION ( #88, #280 ) ;
#256 = AXIS2_PLACEMENT_3D ( 'NONE', #180, #182, #129 ) ;
#257 = EDGE_LOOP ( 'NONE', ( #236 ) ) ;
#258 = CARTESIAN_POINT ( 'NONE',  ( 1.326762908760390423E-13, 8.998558695971099120E-33, 38.00000000000000000 ) ) ;
#259 = EDGE_LOOP ( 'NONE', ( #61 ) ) ;
#260 = FACE_OUTER_BOUND ( 'NONE', #216, .T. ) ;
#261 = EDGE_LOOP ( 'NONE', ( #66 ) ) ;
#262 = ADVANCED_FACE ( 'NONE', ( #176, #97 ), #56, .T. ) ;
#263 = AXIS2_PLACEMENT_3D ( 'NONE', #95, #6, #200 ) ;
#264 = DIRECTION ( 'NONE',  ( 0.0000000000000000000, 1.000000000000000000, 0.0000000000000000000 ) ) ;
#265 = FACE_BOUND ( 'NONE', #140, .T. ) ;
#266 = CARTESIAN_POINT ( 'NONE',  ( 1.326762908760390423E-13, 1.199999999999998845, 38.00000000000000000 ) ) ;
#267 = CONICAL_SURFACE ( 'NONE', #135, 1.499999999999996891, 0.1745329251994260367 ) ;
#268 = CARTESIAN_POINT ( 'NONE',  ( -4.731839565957901202E-32, 0.2057649730810377220, -1.355252715606880234E-17 ) ) ;
#269 = VERTEX_POINT ( 'NONE', #243 ) ;
#270 = COORDINATED_UNIVERSAL_TIME_OFFSET ( 1, 0, .AHEAD. ) ;
#271 = COORDINATED_UNIVERSAL_TIME_OFFSET ( 1, 0, .AHEAD. ) ;
#272 = CARTESIAN_POINT ( 'NONE',  ( 1.316288464743861212E-13, 1.499999999999998668, 37.69999999999999574 ) ) ;
#273 = AXIS2_PLACEMENT_3D ( 'NONE', #73, #113, #248 ) ;
#274 = CC_DESIGN_PERSON_AND_ORGANIZATION_ASSIGNMENT ( #13, #161, ( #134 ) ) ;
#275 = DATE_AND_TIME ( #185, #189 ) ;
#276 = PRODUCT_DEFINITION_FORMATION_WITH_SPECIFIED_SOURCE ( 'ANY', '', #134, .NOT_KNOWN. ) ;
#277 = COORDINATED_UNIVERSAL_TIME_OFFSET ( 1, 0, .AHEAD. ) ;
#278 = EDGE_CURVE ( 'NONE', #246, #246, #214, .T. ) ;
#279 = PLANE ( 'NONE',  #110 ) ;
#280 = ORGANIZATION ( 'UNSPECIFIED', 'UNSPECIFIED', '' ) ;
#281 = DIRECTION ( 'NONE',  ( 0.0000000000000000000, 1.000000000000000000, 0.0000000000000000000 ) ) ;
#282 = EDGE_LOOP ( 'NONE', ( #63 ) ) ;
#283 = EDGE_LOOP ( 'NONE', ( #120 ) ) ;
ENDSEC;
END-ISO-10303-21;
