ISO-10303-21;
HEADER;
FILE_DESCRIPTION (( 'STEP AP203' ),
    '1' );
FILE_NAME ('200.step',
    '2021-10-06T08:24:23',
    ( '' ),
    ( '' ),
    'SwSTEP 2.0',
    'SolidWorks 2019',
    '' );
FILE_SCHEMA (( 'CONFIG_CONTROL_DESIGN' ));
ENDSEC;

DATA;
#1 = CARTESIAN_POINT ( 'NONE',  ( 1.047444401652940007E-13, -3.673940397442059178E-15, 30.00000000000000000 ) ) ;
#2 = CYLINDRICAL_SURFACE ( 'NONE', #143, 0.2749999999999967470 ) ;
#3 = APPROVAL_PERSON_ORGANIZATION ( #63, #104, #115 ) ;
#4 = PERSON_AND_ORGANIZATION ( #148, #54 ) ;
#5 = APPROVAL_STATUS ( 'not_yet_approved' ) ;
#6 = APPROVAL_ROLE ( '' ) ;
#7 = PERSON_AND_ORGANIZATION ( #148, #54 ) ;
#8 = APPLICATION_CONTEXT ( 'configuration controlled 3d designs of mechanical parts and assemblies' ) ;
#9 = COORDINATED_UNIVERSAL_TIME_OFFSET ( 1, 0, .AHEAD. ) ;
#10 = CARTESIAN_POINT ( 'NONE',  ( 0.0000000000000000000, 0.0000000000000000000, 0.0000000000000000000 ) ) ;
#11 = AXIS2_PLACEMENT_3D ( 'NONE', #130, #50, #112 ) ;
#12 = DIRECTION ( 'NONE',  ( -4.275831445896958607E-31, -1.000000000000000000, -1.224646799147353207E-16 ) ) ;
#13 = PRODUCT_DEFINITION_SHAPE ( 'NONE', 'NONE',  #195 ) ;
#14 = VERTEX_POINT ( 'NONE', #169 ) ;
#15 = DIRECTION ( 'NONE',  ( -4.275831445896958607E-31, -1.000000000000000000, -1.224646799147353207E-16 ) ) ;
#16 = ADVANCED_FACE ( 'NONE', ( #164 ), #23, .T. ) ;
#17 = DIRECTION ( 'NONE',  ( 0.0000000000000000000, 1.000000000000000000, 0.0000000000000000000 ) ) ;
#18 = SECURITY_CLASSIFICATION_LEVEL ( 'unclassified' ) ;
#19 = LOCAL_TIME ( 10, 24, 22.00000000000000000, #93 ) ;
#20 = ORIENTED_EDGE ( 'NONE', *, *, #117, .F. ) ;
#21 = ORIENTED_EDGE ( 'NONE', *, *, #131, .F. ) ;
#22 = UNCERTAINTY_MEASURE_WITH_UNIT (LENGTH_MEASURE( 1.000000000000000082E-05 ), #152, 'distance_accuracy_value', 'NONE');
#23 = PLANE ( 'NONE',  #139 ) ;
#24 = FACE_OUTER_BOUND ( 'NONE', #35, .T. ) ;
#25 = PLANE ( 'NONE',  #96 ) ;
#26 = APPROVAL ( #5, 'UNSPECIFIED' ) ;
#27 = VERTEX_POINT ( 'NONE', #87 ) ;
#28 =( NAMED_UNIT ( * ) PLANE_ANGLE_UNIT ( ) SI_UNIT ( $, .RADIAN. ) );
#29 = AXIS2_PLACEMENT_3D ( 'NONE', #151, #88, #122 ) ;
#30 = EDGE_CURVE ( 'NONE', #200, #200, #161, .T. ) ;
#31 = CARTESIAN_POINT ( 'NONE',  ( 2.094888803305880013E-14, -7.347880794884119736E-16, 6.000000000000000000 ) ) ;
#32 =( GEOMETRIC_REPRESENTATION_CONTEXT ( 3 ) GLOBAL_UNCERTAINTY_ASSIGNED_CONTEXT ( ( #22 ) ) GLOBAL_UNIT_ASSIGNED_CONTEXT ( ( #152, #28, #90 ) ) REPRESENTATION_CONTEXT ( 'NONE', 'WORKASPACE' ) );
#33 = CIRCLE ( 'NONE', #109, 0.2750000000000000222 ) ;
#34 = APPROVAL ( #129, 'UNSPECIFIED' ) ;
#35 = EDGE_LOOP ( 'NONE', ( #72 ) ) ;
#36 = SHAPE_DEFINITION_REPRESENTATION ( #13, #178 ) ;
#37 = APPROVAL_PERSON_ORGANIZATION ( #4, #26, #6 ) ;
#38 = EDGE_LOOP ( 'NONE', ( #196 ) ) ;
#39 = PERSON_AND_ORGANIZATION ( #148, #54 ) ;
#40 = ORIENTED_EDGE ( 'NONE', *, *, #30, .T. ) ;
#41 = DIRECTION ( 'NONE',  ( 0.0000000000000000000, 1.000000000000000000, 0.0000000000000000000 ) ) ;
#42 = DIRECTION ( 'NONE',  ( 0.0000000000000000000, 1.000000000000000000, 0.0000000000000000000 ) ) ;
#43 = DIRECTION ( 'NONE',  ( 0.0000000000000000000, 1.000000000000000000, 0.0000000000000000000 ) ) ;
#44 = CIRCLE ( 'NONE', #11, 0.2749999999999963585 ) ;
#45 = LOCAL_TIME ( 10, 24, 22.00000000000000000, #9 ) ;
#46 = CC_DESIGN_PERSON_AND_ORGANIZATION_ASSIGNMENT ( #39, #176, ( #150 ) ) ;
#47 = PERSON_AND_ORGANIZATION ( #148, #54 ) ;
#48 = DATE_AND_TIME ( #189, #19 ) ;
#49 = APPROVAL_DATE_TIME ( #48, #26 ) ;
#50 = DIRECTION ( 'NONE',  ( -3.491481338843133355E-15, 1.224646799147353207E-16, -1.000000000000000000 ) ) ;
#51 = ADVANCED_FACE ( 'NONE', ( #24, #182 ), #68, .T. ) ;
#52 = APPROVAL_ROLE ( '' ) ;
#53 = ORIENTED_EDGE ( 'NONE', *, *, #190, .T. ) ;
#54 = ORGANIZATION ( 'UNSPECIFIED', 'UNSPECIFIED', '' ) ;
#55 = ORIENTED_EDGE ( 'NONE', *, *, #136, .F. ) ;
#56 = EDGE_LOOP ( 'NONE', ( #20 ) ) ;
#57 = AXIS2_PLACEMENT_3D ( 'NONE', #81, #133, #66 ) ;
#58 = DIRECTION ( 'NONE',  ( 0.0000000000000000000, 0.0000000000000000000, 1.000000000000000000 ) ) ;
#59 = FACE_BOUND ( 'NONE', #114, .T. ) ;
#60 = PLANE ( 'NONE',  #29 ) ;
#61 = CARTESIAN_POINT ( 'NONE',  ( 2.094888803305880013E-14, 2.062169701160021710E-33, 6.000000000000000000 ) ) ;
#62 = AXIS2_PLACEMENT_3D ( 'NONE', #10, #71, #86 ) ;
#63 = PERSON_AND_ORGANIZATION ( #148, #54 ) ;
#64 = APPROVAL_STATUS ( 'not_yet_approved' ) ;
#65 = APPLICATION_PROTOCOL_DEFINITION ( 'international standard', 'config_control_design', 1994, #191 ) ;
#66 = DIRECTION ( 'NONE',  ( -3.501690807976838998E-31, -1.000000000000000000, -9.856383386231989482E-17 ) ) ;
#67 = PERSON_AND_ORGANIZATION_ROLE ( 'creator' ) ;
#68 = CYLINDRICAL_SURFACE ( 'NONE', #62, 0.2749999999999985789 ) ;
#69 = CC_DESIGN_PERSON_AND_ORGANIZATION_ASSIGNMENT ( #7, #127, ( #116 ) ) ;
#70 = CC_DESIGN_SECURITY_CLASSIFICATION ( #150, ( #187 ) ) ;
#71 = DIRECTION ( 'NONE',  ( -3.491481338843133355E-15, 1.224646799147353207E-16, -1.000000000000000000 ) ) ;
#72 = ORIENTED_EDGE ( 'NONE', *, *, #30, .F. ) ;
#73 = CARTESIAN_POINT ( 'NONE',  ( 0.0000000000000000000, 0.0000000000000000000, 0.0000000000000000000 ) ) ;
#74 = LOCAL_TIME ( 10, 24, 22.00000000000000000, #82 ) ;
#75 = VERTEX_POINT ( 'NONE', #203 ) ;
#76 = DIRECTION ( 'NONE',  ( 3.491481338843133355E-15, -1.224646799147353207E-16, 1.000000000000000000 ) ) ;
#77 = DIRECTION ( 'NONE',  ( -3.491481338843133355E-15, 1.224646799147353207E-16, -1.000000000000000000 ) ) ;
#78 = AXIS2_PLACEMENT_3D ( 'NONE', #31, #103, #41 ) ;
#79 = CC_DESIGN_DATE_AND_TIME_ASSIGNMENT ( #144, #94, ( #150 ) ) ;
#80 = CONICAL_SURFACE ( 'NONE', #57, 0.2749999999999963585, 1.047197551196592968 ) ;
#81 = CARTESIAN_POINT ( 'NONE',  ( 5.543471149841993643E-16, -1.944387937662325317E-17, 0.1587713240271467763 ) ) ;
#82 = COORDINATED_UNIVERSAL_TIME_OFFSET ( 1, 0, .AHEAD. ) ;
#83 = EDGE_LOOP ( 'NONE', ( #40 ) ) ;
#84 = ADVANCED_FACE ( 'NONE', ( #149 ), #80, .T. ) ;
#85 = EDGE_LOOP ( 'NONE', ( #163 ) ) ;
#86 = DIRECTION ( 'NONE',  ( 4.275831445896957731E-31, 1.000000000000000000, 1.224646799147353207E-16 ) ) ;
#87 = CARTESIAN_POINT ( 'NONE',  ( 1.047444401652940007E-13, 0.1749999999999963252, 30.00000000000000000 ) ) ;
#88 = DIRECTION ( 'NONE',  ( -3.491481338843133355E-15, 1.224646799147353207E-16, -1.000000000000000000 ) ) ;
#89 = CC_DESIGN_PERSON_AND_ORGANIZATION_ASSIGNMENT ( #113, #108, ( #195 ) ) ;
#90 =( NAMED_UNIT ( * ) SI_UNIT ( $, .STERADIAN. ) SOLID_ANGLE_UNIT ( ) );
#91 = CIRCLE ( 'NONE', #78, 0.2749999999999971356 ) ;
#92 = DIRECTION ( 'NONE',  ( 4.275831445896958607E-31, 1.000000000000000000, 1.224646799147353207E-16 ) ) ;
#93 = COORDINATED_UNIVERSAL_TIME_OFFSET ( 1, 0, .AHEAD. ) ;
#94 = DATE_TIME_ROLE ( 'classification_date' ) ;
#95 = FACE_OUTER_BOUND ( 'NONE', #177, .T. ) ;
#96 = AXIS2_PLACEMENT_3D ( 'NONE', #61, #76, #15 ) ;
#97 = EDGE_LOOP ( 'NONE', ( #198 ) ) ;
#98 = CC_DESIGN_APPROVAL ( #26, ( #187 ) ) ;
#99 = DIRECTION ( 'NONE',  ( 3.491481338843133355E-15, -1.224646799147353207E-16, 1.000000000000000000 ) ) ;
#100 = CC_DESIGN_DATE_AND_TIME_ASSIGNMENT ( #173, #162, ( #195 ) ) ;
#101 = FACE_OUTER_BOUND ( 'NONE', #56, .T. ) ;
#102 = CARTESIAN_POINT ( 'NONE',  ( 1.043952920314096810E-13, -3.661693929450586610E-15, 29.89999999999999858 ) ) ;
#103 = DIRECTION ( 'NONE',  ( -3.491481338843133355E-15, 1.224646799147353207E-16, -1.000000000000000000 ) ) ;
#104 = APPROVAL ( #64, 'UNSPECIFIED' ) ;
#105 = DIRECTION ( 'NONE',  ( -3.491481338843133355E-15, 1.224646799147353207E-16, -1.000000000000000000 ) ) ;
#106 = MANIFOLD_SOLID_BREP ( 'Corps-Déplacer/Copier1[1]', #142 ) ;
#107 = APPLICATION_PROTOCOL_DEFINITION ( 'international standard', 'config_control_design', 1994, #8 ) ;
#108 = PERSON_AND_ORGANIZATION_ROLE ( 'creator' ) ;
#109 = AXIS2_PLACEMENT_3D ( 'NONE', #102, #170, #17 ) ;
#110 = PERSON_AND_ORGANIZATION ( #148, #54 ) ;
#111 = PERSON_AND_ORGANIZATION ( #148, #54 ) ;
#112 = DIRECTION ( 'NONE',  ( 3.501690807976838998E-31, 1.000000000000000000, 9.856383386231989482E-17 ) ) ;
#113 = PERSON_AND_ORGANIZATION ( #148, #54 ) ;
#114 = EDGE_LOOP ( 'NONE', ( #53 ) ) ;
#115 = APPROVAL_ROLE ( '' ) ;
#116 = PRODUCT ( '200', '200', '', ( #119 ) ) ;
#117 = EDGE_CURVE ( 'NONE', #14, #14, #44, .T. ) ;
#118 = CLOSED_SHELL ( 'NONE', ( #84, #201, #16 ) ) ;
#119 = MECHANICAL_CONTEXT ( 'NONE', #8, 'mechanical' ) ;
#120 = CARTESIAN_POINT ( 'NONE',  ( 0.0000000000000000000, 0.0000000000000000000, 0.0000000000000000000 ) ) ;
#121 = ADVANCED_FACE ( 'NONE', ( #95, #59 ), #128, .T. ) ;
#122 = DIRECTION ( 'NONE',  ( 4.275831445896958607E-31, 1.000000000000000000, 1.224646799147353207E-16 ) ) ;
#123 = AXIS2_PLACEMENT_3D ( 'NONE', #1, #105, #43 ) ;
#124 = AXIS2_PLACEMENT_3D ( 'NONE', #147, #180, #165 ) ;
#125 = FACE_OUTER_BOUND ( 'NONE', #83, .T. ) ;
#126 = AXIS2_PLACEMENT_3D ( 'NONE', #73, #58, #183 ) ;
#127 = PERSON_AND_ORGANIZATION_ROLE ( 'design_owner' ) ;
#128 = CONICAL_SURFACE ( 'NONE', #135, 0.1750000000000000167, 0.7853981633974512766 ) ;
#129 = APPROVAL_STATUS ( 'not_yet_approved' ) ;
#130 = CARTESIAN_POINT ( 'NONE',  ( 5.543471149841993643E-16, -1.944387937662325317E-17, 0.1587713240271467763 ) ) ;
#131 = EDGE_CURVE ( 'NONE', #75, #75, #91, .T. ) ;
#132 = LOCAL_TIME ( 10, 24, 22.00000000000000000, #175 ) ;
#133 = DIRECTION ( 'NONE',  ( 3.491481338843133355E-15, -1.224646799147353207E-16, 1.000000000000000000 ) ) ;
#134 = EDGE_LOOP ( 'NONE', ( #21 ) ) ;
#135 = AXIS2_PLACEMENT_3D ( 'NONE', #167, #77, #42 ) ;
#136 = EDGE_CURVE ( 'NONE', #185, #185, #33, .T. ) ;
#137 = FACE_OUTER_BOUND ( 'NONE', #145, .T. ) ;
#138 = CARTESIAN_POINT ( 'NONE',  ( 2.094888803305880013E-14, 0.2749999999999963585, 6.000000000000000000 ) ) ;
#139 = AXIS2_PLACEMENT_3D ( 'NONE', #199, #99, #12 ) ;
#140 = DESIGN_CONTEXT ( 'detailed design', #191, 'design' ) ;
#141 = DIRECTION ( 'NONE',  ( -3.491481338843133355E-15, 1.224646799147353207E-16, -1.000000000000000000 ) ) ;
#142 = CLOSED_SHELL ( 'NONE', ( #171, #51, #121, #184 ) ) ;
#143 = AXIS2_PLACEMENT_3D ( 'NONE', #120, #141, #92 ) ;
#144 = DATE_AND_TIME ( #155, #132 ) ;
#145 = EDGE_LOOP ( 'NONE', ( #193 ) ) ;
#146 = APPROVAL_DATE_TIME ( #159, #104 ) ;
#147 = CARTESIAN_POINT ( 'NONE',  ( 2.094888803305880013E-14, -7.347880794884119736E-16, 6.000000000000000000 ) ) ;
#148 = PERSON ( 'UNSPECIFIED', 'UNSPECIFIED', 'UNSPECIFIED', ('UNSPECIFIED'), ('UNSPECIFIED'), ('UNSPECIFIED') ) ;
#149 = FACE_OUTER_BOUND ( 'NONE', #97, .T. ) ;
#150 = SECURITY_CLASSIFICATION ( '', '', #18 ) ;
#151 = CARTESIAN_POINT ( 'NONE',  ( 1.047444401652940007E-13, 1.312289809829070327E-33, 30.00000000000000000 ) ) ;
#152 =( LENGTH_UNIT ( ) NAMED_UNIT ( * ) SI_UNIT ( .MILLI., .METRE. ) );
#153 = CC_DESIGN_PERSON_AND_ORGANIZATION_ASSIGNMENT ( #111, #67, ( #187 ) ) ;
#154 = CC_DESIGN_PERSON_AND_ORGANIZATION_ASSIGNMENT ( #47, #181, ( #187 ) ) ;
#155 = CALENDAR_DATE ( 2021, 6, 10 ) ;
#156 = LOCAL_TIME ( 10, 24, 22.00000000000000000, #188 ) ;
#157 = APPROVAL_DATE_TIME ( #194, #34 ) ;
#158 = CALENDAR_DATE ( 2021, 6, 10 ) ;
#159 = DATE_AND_TIME ( #158, #156 ) ;
#160 = PRODUCT_RELATED_PRODUCT_CATEGORY ( 'detail', '', ( #116 ) ) ;
#161 = CIRCLE ( 'NONE', #124, 0.2749999999999971356 ) ;
#162 = DATE_TIME_ROLE ( 'creation_date' ) ;
#163 = ORIENTED_EDGE ( 'NONE', *, *, #136, .T. ) ;
#164 = FACE_OUTER_BOUND ( 'NONE', #134, .T. ) ;
#165 = DIRECTION ( 'NONE',  ( 0.0000000000000000000, 1.000000000000000000, 0.0000000000000000000 ) ) ;
#166 = FACE_OUTER_BOUND ( 'NONE', #38, .T. ) ;
#167 = CARTESIAN_POINT ( 'NONE',  ( 1.047444401652940007E-13, -3.673940397442059178E-15, 30.00000000000000000 ) ) ;
#168 = CC_DESIGN_APPROVAL ( #104, ( #150 ) ) ;
#169 = CARTESIAN_POINT ( 'NONE',  ( 5.543471149841994629E-16, 0.2749999999999963585, 0.1587713240271468040 ) ) ;
#170 = DIRECTION ( 'NONE',  ( -3.491481338843133355E-15, 1.224646799147353207E-16, -1.000000000000000000 ) ) ;
#171 = ADVANCED_FACE ( 'NONE', ( #125 ), #25, .F. ) ;
#172 = MANIFOLD_SOLID_BREP ( 'Corps-Déplacer/Copier1[2]', #118 ) ;
#173 = DATE_AND_TIME ( #179, #74 ) ;
#174 = CC_DESIGN_APPROVAL ( #34, ( #195 ) ) ;
#175 = COORDINATED_UNIVERSAL_TIME_OFFSET ( 1, 0, .AHEAD. ) ;
#176 = PERSON_AND_ORGANIZATION_ROLE ( 'classification_officer' ) ;
#177 = EDGE_LOOP ( 'NONE', ( #55 ) ) ;
#178 = ADVANCED_BREP_SHAPE_REPRESENTATION ( '200', ( #106, #172, #126 ), #32 ) ;
#179 = CALENDAR_DATE ( 2021, 6, 10 ) ;
#180 = DIRECTION ( 'NONE',  ( -3.491481338843133355E-15, 1.224646799147353207E-16, -1.000000000000000000 ) ) ;
#181 = PERSON_AND_ORGANIZATION_ROLE ( 'design_supplier' ) ;
#182 = FACE_OUTER_BOUND ( 'NONE', #85, .T. ) ;
#183 = DIRECTION ( 'NONE',  ( 1.000000000000000000, 0.0000000000000000000, 0.0000000000000000000 ) ) ;
#184 = ADVANCED_FACE ( 'NONE', ( #166 ), #60, .F. ) ;
#185 = VERTEX_POINT ( 'NONE', #186 ) ;
#186 = CARTESIAN_POINT ( 'NONE',  ( 1.043952920314096810E-13, 0.2749999999999963030, 29.89999999999999858 ) ) ;
#187 = PRODUCT_DEFINITION_FORMATION_WITH_SPECIFIED_SOURCE ( 'ANY', '', #116, .NOT_KNOWN. ) ;
#188 = COORDINATED_UNIVERSAL_TIME_OFFSET ( 1, 0, .AHEAD. ) ;
#189 = CALENDAR_DATE ( 2021, 6, 10 ) ;
#190 = EDGE_CURVE ( 'NONE', #27, #27, #197, .T. ) ;
#191 = APPLICATION_CONTEXT ( 'configuration controlled 3d designs of mechanical parts and assemblies' ) ;
#192 = CALENDAR_DATE ( 2021, 6, 10 ) ;
#193 = ORIENTED_EDGE ( 'NONE', *, *, #131, .T. ) ;
#194 = DATE_AND_TIME ( #192, #45 ) ;
#195 = PRODUCT_DEFINITION ( 'UNKNOWN', '', #187, #140 ) ;
#196 = ORIENTED_EDGE ( 'NONE', *, *, #190, .F. ) ;
#197 = CIRCLE ( 'NONE', #123, 0.1750000000000000167 ) ;
#198 = ORIENTED_EDGE ( 'NONE', *, *, #117, .T. ) ;
#199 = CARTESIAN_POINT ( 'NONE',  ( 2.094888803305880013E-14, 2.062169701160021710E-33, 6.000000000000000000 ) ) ;
#200 = VERTEX_POINT ( 'NONE', #138 ) ;
#201 = ADVANCED_FACE ( 'NONE', ( #101, #137 ), #2, .T. ) ;
#202 = APPROVAL_PERSON_ORGANIZATION ( #110, #34, #52 ) ;
#203 = CARTESIAN_POINT ( 'NONE',  ( 2.094888803305880013E-14, 0.2749999999999963585, 6.000000000000000000 ) ) ;
ENDSEC;
END-ISO-10303-21;
