ISO-10303-21;
HEADER;
FILE_DESCRIPTION (( 'STEP AP203' ),
    '1' );
FILE_NAME ('199.step',
    '2021-10-06T08:24:22',
    ( '' ),
    ( '' ),
    'SwSTEP 2.0',
    'SolidWorks 2019',
    '' );
FILE_SCHEMA (( 'CONFIG_CONTROL_DESIGN' ));
ENDSEC;

DATA;
#1 = ORIENTED_EDGE ( 'NONE', *, *, #100, .F. ) ;
#2 = DESIGN_CONTEXT ( 'detailed design', #117, 'design' ) ;
#3 = AXIS2_PLACEMENT_3D ( 'NONE', #112, #127, #7 ) ;
#4 = FACE_OUTER_BOUND ( 'NONE', #63, .T. ) ;
#5 = CARTESIAN_POINT ( 'NONE',  ( 2.094888803305880013E-14, 1.874699728327288825E-33, 6.000000000000000000 ) ) ;
#6 = CARTESIAN_POINT ( 'NONE',  ( 2.094888803305880013E-14, -7.347880794884119736E-16, 6.000000000000000000 ) ) ;
#7 = DIRECTION ( 'NONE',  ( 4.275831445896959482E-31, 1.000000000000000000, 1.224646799147353207E-16 ) ) ;
#8 = CARTESIAN_POINT ( 'NONE',  ( 1.047444401652940007E-13, 1.124819836996337954E-33, 30.00000000000000000 ) ) ;
#9 = CONICAL_SURFACE ( 'NONE', #56, 0.2499999999999963085, 1.047197551196592746 ) ;
#10 = CARTESIAN_POINT ( 'NONE',  ( 0.0000000000000000000, 0.0000000000000000000, 0.0000000000000000000 ) ) ;
#11 = PERSON_AND_ORGANIZATION_ROLE ( 'design_owner' ) ;
#12 = PRODUCT_DEFINITION ( 'UNKNOWN', '', #113, #2 ) ;
#13 = APPROVAL_STATUS ( 'not_yet_approved' ) ;
#14 = LOCAL_TIME ( 10, 24, 22.00000000000000000, #42 ) ;
#15 = DATE_AND_TIME ( #74, #81 ) ;
#16 = COORDINATED_UNIVERSAL_TIME_OFFSET ( 1, 0, .AHEAD. ) ;
#17 = PRODUCT_RELATED_PRODUCT_CATEGORY ( 'detail', '', ( #128 ) ) ;
#18 = EDGE_LOOP ( 'NONE', ( #84 ) ) ;
#19 = EDGE_LOOP ( 'NONE', ( #142 ) ) ;
#20 = CONICAL_SURFACE ( 'NONE', #186, 0.1500000000000000222, 0.7853981633974512766 ) ;
#21 = EDGE_LOOP ( 'NONE', ( #1 ) ) ;
#22 = DIRECTION ( 'NONE',  ( 3.491481338843133355E-15, -1.224646799147353207E-16, 1.000000000000000000 ) ) ;
#23 = DIRECTION ( 'NONE',  ( -3.491481338843133355E-15, 1.224646799147353207E-16, -1.000000000000000000 ) ) ;
#24 = CYLINDRICAL_SURFACE ( 'NONE', #3, 0.2499999999999966971 ) ;
#25 = DIRECTION ( 'NONE',  ( -3.851859888774528634E-31, -1.000000000000000000, -1.084202172485520458E-16 ) ) ;
#26 = FACE_OUTER_BOUND ( 'NONE', #19, .T. ) ;
#27 = CC_DESIGN_PERSON_AND_ORGANIZATION_ASSIGNMENT ( #156, #95, ( #12 ) ) ;
#28 = DATE_AND_TIME ( #170, #14 ) ;
#29 = COORDINATED_UNIVERSAL_TIME_OFFSET ( 1, 0, .AHEAD. ) ;
#30 = UNCERTAINTY_MEASURE_WITH_UNIT (LENGTH_MEASURE( 1.000000000000000082E-05 ), #115, 'distance_accuracy_value', 'NONE');
#31 = ORIENTED_EDGE ( 'NONE', *, *, #68, .T. ) ;
#32 = MANIFOLD_SOLID_BREP ( 'Corps-Déplacer/Copier1[1]', #52 ) ;
#33 = APPROVAL_PERSON_ORGANIZATION ( #197, #178, #136 ) ;
#34 = DIRECTION ( 'NONE',  ( -4.275831445896958607E-31, -1.000000000000000000, -1.224646799147353207E-16 ) ) ;
#35 = VERTEX_POINT ( 'NONE', #154 ) ;
#36 = FACE_OUTER_BOUND ( 'NONE', #82, .T. ) ;
#37 = VERTEX_POINT ( 'NONE', #91 ) ;
#38 = DIRECTION ( 'NONE',  ( 0.0000000000000000000, 1.000000000000000000, 0.0000000000000000000 ) ) ;
#39 = ADVANCED_FACE ( 'NONE', ( #4 ), #47, .F. ) ;
#40 = PERSON_AND_ORGANIZATION_ROLE ( 'creator' ) ;
#41 = CC_DESIGN_APPROVAL ( #130, ( #12 ) ) ;
#42 = COORDINATED_UNIVERSAL_TIME_OFFSET ( 1, 0, .AHEAD. ) ;
#43 = DATE_AND_TIME ( #44, #164 ) ;
#44 = CALENDAR_DATE ( 2021, 6, 10 ) ;
#45 = CIRCLE ( 'NONE', #64, 0.2499999999999970857 ) ;
#46 =( NAMED_UNIT ( * ) SI_UNIT ( $, .STERADIAN. ) SOLID_ANGLE_UNIT ( ) );
#47 = PLANE ( 'NONE',  #76 ) ;
#48 = DIRECTION ( 'NONE',  ( 4.275831445896958607E-31, 1.000000000000000000, 1.224646799147353207E-16 ) ) ;
#49 = CARTESIAN_POINT ( 'NONE',  ( 1.043952920314096810E-13, -3.661693929450586610E-15, 29.89999999999999858 ) ) ;
#50 = CC_DESIGN_PERSON_AND_ORGANIZATION_ASSIGNMENT ( #200, #55, ( #180 ) ) ;
#51 = DIRECTION ( 'NONE',  ( -3.491481338843133355E-15, 1.224646799147353207E-16, -1.000000000000000000 ) ) ;
#52 = CLOSED_SHELL ( 'NONE', ( #39, #99, #66, #149 ) ) ;
#53 = CALENDAR_DATE ( 2021, 6, 10 ) ;
#54 = ADVANCED_FACE ( 'NONE', ( #36 ), #9, .T. ) ;
#55 = PERSON_AND_ORGANIZATION_ROLE ( 'classification_officer' ) ;
#56 = AXIS2_PLACEMENT_3D ( 'NONE', #148, #129, #25 ) ;
#57 = MECHANICAL_CONTEXT ( 'NONE', #98, 'mechanical' ) ;
#58 = CC_DESIGN_DATE_AND_TIME_ASSIGNMENT ( #15, #160, ( #12 ) ) ;
#59 = DATE_TIME_ROLE ( 'classification_date' ) ;
#60 = CIRCLE ( 'NONE', #92, 0.1500000000000000222 ) ;
#61 = EDGE_CURVE ( 'NONE', #37, #37, #173, .T. ) ;
#62 = EDGE_LOOP ( 'NONE', ( #188 ) ) ;
#63 = EDGE_LOOP ( 'NONE', ( #31 ) ) ;
#64 = AXIS2_PLACEMENT_3D ( 'NONE', #177, #23, #105 ) ;
#65 = LOCAL_TIME ( 10, 24, 22.00000000000000000, #16 ) ;
#66 = ADVANCED_FACE ( 'NONE', ( #166, #104 ), #20, .T. ) ;
#67 = DIRECTION ( 'NONE',  ( 3.491481338843133355E-15, -1.224646799147353207E-16, 1.000000000000000000 ) ) ;
#68 = EDGE_CURVE ( 'NONE', #71, #71, #45, .T. ) ;
#69 = CARTESIAN_POINT ( 'NONE',  ( 2.094888803305880013E-14, 0.2499999999999963085, 6.000000000000000000 ) ) ;
#70 = DIRECTION ( 'NONE',  ( -3.491481338843133355E-15, 1.224646799147353207E-16, -1.000000000000000000 ) ) ;
#71 = VERTEX_POINT ( 'NONE', #167 ) ;
#72 = AXIS2_PLACEMENT_3D ( 'NONE', #8, #51, #48 ) ;
#73 = CC_DESIGN_SECURITY_CLASSIFICATION ( #180, ( #113 ) ) ;
#74 = CALENDAR_DATE ( 2021, 6, 10 ) ;
#75 = CARTESIAN_POINT ( 'NONE',  ( 0.0000000000000000000, 0.0000000000000000000, 0.0000000000000000000 ) ) ;
#76 = AXIS2_PLACEMENT_3D ( 'NONE', #163, #22, #34 ) ;
#77 = CC_DESIGN_PERSON_AND_ORGANIZATION_ASSIGNMENT ( #79, #11, ( #128 ) ) ;
#78 = CC_DESIGN_APPROVAL ( #178, ( #113 ) ) ;
#79 = PERSON_AND_ORGANIZATION ( #151, #194 ) ;
#80 = DATE_AND_TIME ( #201, #65 ) ;
#81 = LOCAL_TIME ( 10, 24, 22.00000000000000000, #118 ) ;
#82 = EDGE_LOOP ( 'NONE', ( #162 ) ) ;
#83 = PRODUCT_DEFINITION_SHAPE ( 'NONE', 'NONE',  #12 ) ;
#84 = ORIENTED_EDGE ( 'NONE', *, *, #172, .T. ) ;
#85 = ADVANCED_FACE ( 'NONE', ( #131, #192 ), #24, .T. ) ;
#86 = APPROVAL_PERSON_ORGANIZATION ( #97, #130, #134 ) ;
#87 = FACE_OUTER_BOUND ( 'NONE', #140, .T. ) ;
#88 = DIRECTION ( 'NONE',  ( 0.0000000000000000000, 1.000000000000000000, 0.0000000000000000000 ) ) ;
#89 = FACE_OUTER_BOUND ( 'NONE', #62, .T. ) ;
#90 = DIRECTION ( 'NONE',  ( 3.851859888774528634E-31, 1.000000000000000000, 1.084202172485520458E-16 ) ) ;
#91 = CARTESIAN_POINT ( 'NONE',  ( 5.039519227129080200E-16, 0.2499999999999963085, 0.1443375672974060164 ) ) ;
#92 = AXIS2_PLACEMENT_3D ( 'NONE', #102, #114, #181 ) ;
#93 = SECURITY_CLASSIFICATION_LEVEL ( 'unclassified' ) ;
#94 = DIRECTION ( 'NONE',  ( 0.0000000000000000000, 0.0000000000000000000, 1.000000000000000000 ) ) ;
#95 = PERSON_AND_ORGANIZATION_ROLE ( 'creator' ) ;
#96 = APPROVAL_PERSON_ORGANIZATION ( #121, #145, #159 ) ;
#97 = PERSON_AND_ORGANIZATION ( #151, #194 ) ;
#98 = APPLICATION_CONTEXT ( 'configuration controlled 3d designs of mechanical parts and assemblies' ) ;
#99 = ADVANCED_FACE ( 'NONE', ( #168, #89 ), #101, .T. ) ;
#100 = EDGE_CURVE ( 'NONE', #132, #132, #123, .T. ) ;
#101 = CYLINDRICAL_SURFACE ( 'NONE', #139, 0.2499999999999985290 ) ;
#102 = CARTESIAN_POINT ( 'NONE',  ( 1.047444401652940007E-13, -3.673940397442059178E-15, 30.00000000000000000 ) ) ;
#103 = CARTESIAN_POINT ( 'NONE',  ( 1.047444401652940007E-13, -3.673940397442059178E-15, 30.00000000000000000 ) ) ;
#104 = FACE_BOUND ( 'NONE', #18, .T. ) ;
#105 = DIRECTION ( 'NONE',  ( 0.0000000000000000000, 1.000000000000000000, 0.0000000000000000000 ) ) ;
#106 = PERSON_AND_ORGANIZATION ( #151, #194 ) ;
#107 = APPROVAL_STATUS ( 'not_yet_approved' ) ;
#108 = EDGE_LOOP ( 'NONE', ( #203 ) ) ;
#109 = AXIS2_PLACEMENT_3D ( 'NONE', #6, #111, #38 ) ;
#110 = CARTESIAN_POINT ( 'NONE',  ( 1.043952920314096810E-13, 0.2499999999999963085, 29.89999999999999858 ) ) ;
#111 = DIRECTION ( 'NONE',  ( -3.491481338843133355E-15, 1.224646799147353207E-16, -1.000000000000000000 ) ) ;
#112 = CARTESIAN_POINT ( 'NONE',  ( 0.0000000000000000000, 0.0000000000000000000, 0.0000000000000000000 ) ) ;
#113 = PRODUCT_DEFINITION_FORMATION_WITH_SPECIFIED_SOURCE ( 'ANY', '', #128, .NOT_KNOWN. ) ;
#114 = DIRECTION ( 'NONE',  ( -3.491481338843133355E-15, 1.224646799147353207E-16, -1.000000000000000000 ) ) ;
#115 =( LENGTH_UNIT ( ) NAMED_UNIT ( * ) SI_UNIT ( .MILLI., .METRE. ) );
#116 = DATE_AND_TIME ( #53, #176 ) ;
#117 = APPLICATION_CONTEXT ( 'configuration controlled 3d designs of mechanical parts and assemblies' ) ;
#118 = COORDINATED_UNIVERSAL_TIME_OFFSET ( 1, 0, .AHEAD. ) ;
#119 = CLOSED_SHELL ( 'NONE', ( #54, #85, #125 ) ) ;
#120 = APPLICATION_PROTOCOL_DEFINITION ( 'international standard', 'config_control_design', 1994, #117 ) ;
#121 = PERSON_AND_ORGANIZATION ( #151, #194 ) ;
#122 = APPROVAL_STATUS ( 'not_yet_approved' ) ;
#123 = CIRCLE ( 'NONE', #153, 0.2500000000000000000 ) ;
#124 = ORIENTED_EDGE ( 'NONE', *, *, #68, .F. ) ;
#125 = ADVANCED_FACE ( 'NONE', ( #87 ), #182, .T. ) ;
#126 = DIRECTION ( 'NONE',  ( -3.491481338843133355E-15, 1.224646799147353207E-16, -1.000000000000000000 ) ) ;
#127 = DIRECTION ( 'NONE',  ( -3.491481338843133355E-15, 1.224646799147353207E-16, -1.000000000000000000 ) ) ;
#128 = PRODUCT ( '199', '199', '', ( #57 ) ) ;
#129 = DIRECTION ( 'NONE',  ( 3.491481338843133355E-15, -1.224646799147353207E-16, 1.000000000000000000 ) ) ;
#130 = APPROVAL ( #13, 'UNSPECIFIED' ) ;
#131 = FACE_OUTER_BOUND ( 'NONE', #143, .T. ) ;
#132 = VERTEX_POINT ( 'NONE', #110 ) ;
#133 = APPLICATION_PROTOCOL_DEFINITION ( 'international standard', 'config_control_design', 1994, #98 ) ;
#134 = APPROVAL_ROLE ( '' ) ;
#135 = AXIS2_PLACEMENT_3D ( 'NONE', #75, #94, #199 ) ;
#136 = APPROVAL_ROLE ( '' ) ;
#137 = APPROVAL_DATE_TIME ( #80, #145 ) ;
#138 = SHAPE_DEFINITION_REPRESENTATION ( #83, #190 ) ;
#139 = AXIS2_PLACEMENT_3D ( 'NONE', #10, #126, #150 ) ;
#140 = EDGE_LOOP ( 'NONE', ( #185 ) ) ;
#141 = CC_DESIGN_DATE_AND_TIME_ASSIGNMENT ( #28, #59, ( #180 ) ) ;
#142 = ORIENTED_EDGE ( 'NONE', *, *, #172, .F. ) ;
#143 = EDGE_LOOP ( 'NONE', ( #174 ) ) ;
#144 =( GEOMETRIC_REPRESENTATION_CONTEXT ( 3 ) GLOBAL_UNCERTAINTY_ASSIGNED_CONTEXT ( ( #30 ) ) GLOBAL_UNIT_ASSIGNED_CONTEXT ( ( #115, #171, #46 ) ) REPRESENTATION_CONTEXT ( 'NONE', 'WORKASPACE' ) );
#145 = APPROVAL ( #107, 'UNSPECIFIED' ) ;
#146 = EDGE_LOOP ( 'NONE', ( #124 ) ) ;
#147 = CARTESIAN_POINT ( 'NONE',  ( 5.039519227129079214E-16, -1.767625397874839209E-17, 0.1443375672974059887 ) ) ;
#148 = CARTESIAN_POINT ( 'NONE',  ( 5.039519227129079214E-16, -1.767625397874839209E-17, 0.1443375672974059887 ) ) ;
#149 = ADVANCED_FACE ( 'NONE', ( #26 ), #193, .F. ) ;
#150 = DIRECTION ( 'NONE',  ( 4.275831445896958607E-31, 1.000000000000000000, 1.224646799147353207E-16 ) ) ;
#151 = PERSON ( 'UNSPECIFIED', 'UNSPECIFIED', 'UNSPECIFIED', ('UNSPECIFIED'), ('UNSPECIFIED'), ('UNSPECIFIED') ) ;
#152 = DIRECTION ( 'NONE',  ( -3.491481338843133355E-15, 1.224646799147353207E-16, -1.000000000000000000 ) ) ;
#153 = AXIS2_PLACEMENT_3D ( 'NONE', #49, #70, #179 ) ;
#154 = CARTESIAN_POINT ( 'NONE',  ( 1.047444401652940007E-13, 0.1499999999999963307, 30.00000000000000000 ) ) ;
#155 = PERSON_AND_ORGANIZATION_ROLE ( 'design_supplier' ) ;
#156 = PERSON_AND_ORGANIZATION ( #151, #194 ) ;
#157 = APPROVAL_DATE_TIME ( #43, #130 ) ;
#158 = CC_DESIGN_APPROVAL ( #145, ( #180 ) ) ;
#159 = APPROVAL_ROLE ( '' ) ;
#160 = DATE_TIME_ROLE ( 'creation_date' ) ;
#161 = CC_DESIGN_PERSON_AND_ORGANIZATION_ASSIGNMENT ( #169, #155, ( #113 ) ) ;
#162 = ORIENTED_EDGE ( 'NONE', *, *, #61, .T. ) ;
#163 = CARTESIAN_POINT ( 'NONE',  ( 2.094888803305880013E-14, 1.874699728327288825E-33, 6.000000000000000000 ) ) ;
#164 = LOCAL_TIME ( 10, 24, 22.00000000000000000, #29 ) ;
#165 = CC_DESIGN_PERSON_AND_ORGANIZATION_ASSIGNMENT ( #106, #40, ( #113 ) ) ;
#166 = FACE_OUTER_BOUND ( 'NONE', #21, .T. ) ;
#167 = CARTESIAN_POINT ( 'NONE',  ( 2.094888803305880013E-14, 0.2499999999999963085, 6.000000000000000000 ) ) ;
#168 = FACE_OUTER_BOUND ( 'NONE', #146, .T. ) ;
#169 = PERSON_AND_ORGANIZATION ( #151, #194 ) ;
#170 = CALENDAR_DATE ( 2021, 6, 10 ) ;
#171 =( NAMED_UNIT ( * ) PLANE_ANGLE_UNIT ( ) SI_UNIT ( $, .RADIAN. ) );
#172 = EDGE_CURVE ( 'NONE', #35, #35, #60, .T. ) ;
#173 = CIRCLE ( 'NONE', #187, 0.2499999999999963085 ) ;
#174 = ORIENTED_EDGE ( 'NONE', *, *, #61, .F. ) ;
#175 = MANIFOLD_SOLID_BREP ( 'Corps-Déplacer/Copier1[2]', #119 ) ;
#176 = LOCAL_TIME ( 10, 24, 22.00000000000000000, #198 ) ;
#177 = CARTESIAN_POINT ( 'NONE',  ( 2.094888803305880013E-14, -7.347880794884119736E-16, 6.000000000000000000 ) ) ;
#178 = APPROVAL ( #122, 'UNSPECIFIED' ) ;
#179 = DIRECTION ( 'NONE',  ( 0.0000000000000000000, 1.000000000000000000, 0.0000000000000000000 ) ) ;
#180 = SECURITY_CLASSIFICATION ( '', '', #93 ) ;
#181 = DIRECTION ( 'NONE',  ( 0.0000000000000000000, 1.000000000000000000, 0.0000000000000000000 ) ) ;
#182 = PLANE ( 'NONE',  #184 ) ;
#183 = APPROVAL_DATE_TIME ( #116, #178 ) ;
#184 = AXIS2_PLACEMENT_3D ( 'NONE', #5, #67, #189 ) ;
#185 = ORIENTED_EDGE ( 'NONE', *, *, #196, .F. ) ;
#186 = AXIS2_PLACEMENT_3D ( 'NONE', #103, #152, #88 ) ;
#187 = AXIS2_PLACEMENT_3D ( 'NONE', #147, #191, #90 ) ;
#188 = ORIENTED_EDGE ( 'NONE', *, *, #100, .T. ) ;
#189 = DIRECTION ( 'NONE',  ( -4.275831445896958607E-31, -1.000000000000000000, -1.224646799147353207E-16 ) ) ;
#190 = ADVANCED_BREP_SHAPE_REPRESENTATION ( '199', ( #32, #175, #135 ), #144 ) ;
#191 = DIRECTION ( 'NONE',  ( -3.491481338843133355E-15, 1.224646799147353207E-16, -1.000000000000000000 ) ) ;
#192 = FACE_OUTER_BOUND ( 'NONE', #108, .T. ) ;
#193 = PLANE ( 'NONE',  #72 ) ;
#194 = ORGANIZATION ( 'UNSPECIFIED', 'UNSPECIFIED', '' ) ;
#195 = VERTEX_POINT ( 'NONE', #69 ) ;
#196 = EDGE_CURVE ( 'NONE', #195, #195, #202, .T. ) ;
#197 = PERSON_AND_ORGANIZATION ( #151, #194 ) ;
#198 = COORDINATED_UNIVERSAL_TIME_OFFSET ( 1, 0, .AHEAD. ) ;
#199 = DIRECTION ( 'NONE',  ( 1.000000000000000000, 0.0000000000000000000, 0.0000000000000000000 ) ) ;
#200 = PERSON_AND_ORGANIZATION ( #151, #194 ) ;
#201 = CALENDAR_DATE ( 2021, 6, 10 ) ;
#202 = CIRCLE ( 'NONE', #109, 0.2499999999999970857 ) ;
#203 = ORIENTED_EDGE ( 'NONE', *, *, #196, .T. ) ;
ENDSEC;
END-ISO-10303-21;
