ISO-10303-21;
HEADER;
FILE_DESCRIPTION (( 'STEP AP203' ),
    '1' );
FILE_NAME ('198.step',
    '2021-10-06T08:24:21',
    ( '' ),
    ( '' ),
    'SwSTEP 2.0',
    'SolidWorks 2019',
    '' );
FILE_SCHEMA (( 'CONFIG_CONTROL_DESIGN' ));
ENDSEC;

DATA;
#1 = CC_DESIGN_PERSON_AND_ORGANIZATION_ASSIGNMENT ( #169, #124, ( #115 ) ) ;
#2 = CALENDAR_DATE ( 2021, 6, 10 ) ;
#3 = ORIENTED_EDGE ( 'NONE', *, *, #153, .F. ) ;
#4 = CONICAL_SURFACE ( 'NONE', #174, 0.2249999999999963696, 1.047197551196592746 ) ;
#5 = FACE_OUTER_BOUND ( 'NONE', #35, .T. ) ;
#6 = LOCAL_TIME ( 10, 24, 21.00000000000000000, #101 ) ;
#7 = DIRECTION ( 'NONE',  ( -4.279844320860593210E-31, -1.000000000000000000, -1.204669080539468819E-16 ) ) ;
#8 = CARTESIAN_POINT ( 'NONE',  ( 4.535567304416164784E-16, 0.2249999999999963418, 0.1299038105676652011 ) ) ;
#9 = CC_DESIGN_PERSON_AND_ORGANIZATION_ASSIGNMENT ( #59, #121, ( #115 ) ) ;
#10 = CARTESIAN_POINT ( 'NONE',  ( 0.0000000000000000000, 0.0000000000000000000, 0.0000000000000000000 ) ) ;
#11 = CC_DESIGN_SECURITY_CLASSIFICATION ( #65, ( #115 ) ) ;
#12 = DIRECTION ( 'NONE',  ( 3.491481338843133355E-15, -1.224646799147353207E-16, 1.000000000000000000 ) ) ;
#13 = APPROVAL_STATUS ( 'not_yet_approved' ) ;
#14 = PERSON_AND_ORGANIZATION ( #191, #62 ) ;
#15 = AXIS2_PLACEMENT_3D ( 'NONE', #58, #27, #132 ) ;
#16 = PERSON_AND_ORGANIZATION ( #191, #62 ) ;
#17 = MECHANICAL_CONTEXT ( 'NONE', #158, 'mechanical' ) ;
#18 = EDGE_LOOP ( 'NONE', ( #103 ) ) ;
#19 = SHAPE_DEFINITION_REPRESENTATION ( #75, #93 ) ;
#20 = EDGE_LOOP ( 'NONE', ( #179 ) ) ;
#21 = ADVANCED_FACE ( 'NONE', ( #180 ), #95, .F. ) ;
#22 = CARTESIAN_POINT ( 'NONE',  ( 4.535567304416163798E-16, -1.590862858087353100E-17, 0.1299038105676651733 ) ) ;
#23 = AXIS2_PLACEMENT_3D ( 'NONE', #26, #55, #133 ) ;
#24 = FACE_OUTER_BOUND ( 'NONE', #18, .T. ) ;
#25 = CARTESIAN_POINT ( 'NONE',  ( 2.094888803305880013E-14, -7.347880794884119736E-16, 6.000000000000000000 ) ) ;
#26 = CARTESIAN_POINT ( 'NONE',  ( 1.047444401652940007E-13, -3.673940397442059178E-15, 30.00000000000000000 ) ) ;
#27 = DIRECTION ( 'NONE',  ( -3.491481338843133355E-15, 1.224646799147353207E-16, -1.000000000000000000 ) ) ;
#28 = DATE_TIME_ROLE ( 'classification_date' ) ;
#29 = SECURITY_CLASSIFICATION_LEVEL ( 'unclassified' ) ;
#30 = UNCERTAINTY_MEASURE_WITH_UNIT (LENGTH_MEASURE( 1.000000000000000082E-05 ), #48, 'distance_accuracy_value', 'NONE');
#31 = DIRECTION ( 'NONE',  ( 0.0000000000000000000, 0.0000000000000000000, 1.000000000000000000 ) ) ;
#32 = CC_DESIGN_DATE_AND_TIME_ASSIGNMENT ( #125, #188, ( #100 ) ) ;
#33 = ORIENTED_EDGE ( 'NONE', *, *, #150, .F. ) ;
#34 = AXIS2_PLACEMENT_3D ( 'NONE', #70, #74, #162 ) ;
#35 = EDGE_LOOP ( 'NONE', ( #3 ) ) ;
#36 = EDGE_LOOP ( 'NONE', ( #52 ) ) ;
#37 = DIRECTION ( 'NONE',  ( -4.275831445896958607E-31, -1.000000000000000000, -1.224646799147353207E-16 ) ) ;
#38 = VERTEX_POINT ( 'NONE', #8 ) ;
#39 = AXIS2_PLACEMENT_3D ( 'NONE', #181, #69, #120 ) ;
#40 = APPLICATION_CONTEXT ( 'configuration controlled 3d designs of mechanical parts and assemblies' ) ;
#41 = CARTESIAN_POINT ( 'NONE',  ( 1.047444401652940007E-13, 9.373498641636057535E-34, 30.00000000000000000 ) ) ;
#42 = FACE_OUTER_BOUND ( 'NONE', #20, .T. ) ;
#43 = DIRECTION ( 'NONE',  ( 0.0000000000000000000, 1.000000000000000000, 0.0000000000000000000 ) ) ;
#44 = CLOSED_SHELL ( 'NONE', ( #137, #126, #60, #21 ) ) ;
#45 = DATE_AND_TIME ( #63, #51 ) ;
#46 = ADVANCED_FACE ( 'NONE', ( #108 ), #183, .T. ) ;
#47 = COORDINATED_UNIVERSAL_TIME_OFFSET ( 1, 0, .AHEAD. ) ;
#48 =( LENGTH_UNIT ( ) NAMED_UNIT ( * ) SI_UNIT ( .MILLI., .METRE. ) );
#49 = ADVANCED_FACE ( 'NONE', ( #42 ), #4, .T. ) ;
#50 = APPROVAL_STATUS ( 'not_yet_approved' ) ;
#51 = LOCAL_TIME ( 10, 24, 21.00000000000000000, #96 ) ;
#52 = ORIENTED_EDGE ( 'NONE', *, *, #84, .T. ) ;
#53 = AXIS2_PLACEMENT_3D ( 'NONE', #41, #92, #163 ) ;
#54 = CARTESIAN_POINT ( 'NONE',  ( 2.094888803305880013E-14, 0.2249999999999963418, 6.000000000000000000 ) ) ;
#55 = DIRECTION ( 'NONE',  ( -3.491481338843133355E-15, 1.224646799147353207E-16, -1.000000000000000000 ) ) ;
#56 = CYLINDRICAL_SURFACE ( 'NONE', #77, 0.2249999999999985345 ) ;
#57 = AXIS2_PLACEMENT_3D ( 'NONE', #25, #147, #43 ) ;
#58 = CARTESIAN_POINT ( 'NONE',  ( 0.0000000000000000000, 0.0000000000000000000, 0.0000000000000000000 ) ) ;
#59 = PERSON_AND_ORGANIZATION ( #191, #62 ) ;
#60 = ADVANCED_FACE ( 'NONE', ( #195, #165 ), #112, .T. ) ;
#61 = CALENDAR_DATE ( 2021, 6, 10 ) ;
#62 = ORGANIZATION ( 'UNSPECIFIED', 'UNSPECIFIED', '' ) ;
#63 = CALENDAR_DATE ( 2021, 6, 10 ) ;
#64 = EDGE_LOOP ( 'NONE', ( #192 ) ) ;
#65 = SECURITY_CLASSIFICATION ( '', '', #29 ) ;
#66 = CC_DESIGN_PERSON_AND_ORGANIZATION_ASSIGNMENT ( #202, #136, ( #100 ) ) ;
#67 = EDGE_LOOP ( 'NONE', ( #128 ) ) ;
#68 = CLOSED_SHELL ( 'NONE', ( #49, #114, #46 ) ) ;
#69 = DIRECTION ( 'NONE',  ( -3.491481338843133355E-15, 1.224646799147353207E-16, -1.000000000000000000 ) ) ;
#70 = CARTESIAN_POINT ( 'NONE',  ( 1.043952920314096810E-13, -3.661693929450586610E-15, 29.89999999999999858 ) ) ;
#71 = CARTESIAN_POINT ( 'NONE',  ( 2.094888803305880013E-14, 0.2249999999999963418, 6.000000000000000000 ) ) ;
#72 = PRODUCT ( '198', '198', '', ( #17 ) ) ;
#73 = CC_DESIGN_APPROVAL ( #86, ( #115 ) ) ;
#74 = DIRECTION ( 'NONE',  ( -3.491481338843133355E-15, 1.224646799147353207E-16, -1.000000000000000000 ) ) ;
#75 = PRODUCT_DEFINITION_SHAPE ( 'NONE', 'NONE',  #100 ) ;
#76 = CALENDAR_DATE ( 2021, 6, 10 ) ;
#77 = AXIS2_PLACEMENT_3D ( 'NONE', #10, #118, #94 ) ;
#78 = PERSON_AND_ORGANIZATION ( #191, #62 ) ;
#79 = CC_DESIGN_PERSON_AND_ORGANIZATION_ASSIGNMENT ( #14, #187, ( #72 ) ) ;
#80 = VERTEX_POINT ( 'NONE', #172 ) ;
#81 = DATE_AND_TIME ( #76, #177 ) ;
#82 = AXIS2_PLACEMENT_3D ( 'NONE', #145, #12, #37 ) ;
#83 = CC_DESIGN_APPROVAL ( #173, ( #65 ) ) ;
#84 = EDGE_CURVE ( 'NONE', #146, #146, #89, .T. ) ;
#85 = EDGE_LOOP ( 'NONE', ( #33 ) ) ;
#86 = APPROVAL ( #50, 'UNSPECIFIED' ) ;
#87 = PRODUCT_RELATED_PRODUCT_CATEGORY ( 'detail', '', ( #72 ) ) ;
#88 = DIRECTION ( 'NONE',  ( 3.491481338843133355E-15, -1.224646799147353207E-16, 1.000000000000000000 ) ) ;
#89 = CIRCLE ( 'NONE', #134, 0.2249999999999970635 ) ;
#90 = PLANE ( 'NONE',  #190 ) ;
#91 = CIRCLE ( 'NONE', #34, 0.2250000000000000056 ) ;
#92 = DIRECTION ( 'NONE',  ( -3.491481338843133355E-15, 1.224646799147353207E-16, -1.000000000000000000 ) ) ;
#93 = ADVANCED_BREP_SHAPE_REPRESENTATION ( '198', ( #109, #175, #157 ), #144 ) ;
#94 = DIRECTION ( 'NONE',  ( 4.275831445896958607E-31, 1.000000000000000000, 1.224646799147353207E-16 ) ) ;
#95 = PLANE ( 'NONE',  #53 ) ;
#96 = COORDINATED_UNIVERSAL_TIME_OFFSET ( 1, 0, .AHEAD. ) ;
#97 = DATE_AND_TIME ( #61, #167 ) ;
#98 = CARTESIAN_POINT ( 'NONE',  ( 0.0000000000000000000, 0.0000000000000000000, 0.0000000000000000000 ) ) ;
#99 =( NAMED_UNIT ( * ) SI_UNIT ( $, .STERADIAN. ) SOLID_ANGLE_UNIT ( ) );
#100 = PRODUCT_DEFINITION ( 'UNKNOWN', '', #115, #160 ) ;
#101 = COORDINATED_UNIVERSAL_TIME_OFFSET ( 1, 0, .AHEAD. ) ;
#102 = APPROVAL_PERSON_ORGANIZATION ( #78, #86, #201 ) ;
#103 = ORIENTED_EDGE ( 'NONE', *, *, #189, .T. ) ;
#104 = DIRECTION ( 'NONE',  ( 3.491481338843133355E-15, -1.224646799147353207E-16, 1.000000000000000000 ) ) ;
#105 = VERTEX_POINT ( 'NONE', #71 ) ;
#106 = FACE_OUTER_BOUND ( 'NONE', #36, .T. ) ;
#107 = CARTESIAN_POINT ( 'NONE',  ( 4.535567304416163798E-16, -1.590862858087353100E-17, 0.1299038105676651733 ) ) ;
#108 = FACE_OUTER_BOUND ( 'NONE', #67, .T. ) ;
#109 = MANIFOLD_SOLID_BREP ( 'Corps-Déplacer/Copier1[1]', #44 ) ;
#110 = APPROVAL_PERSON_ORGANIZATION ( #149, #173, #140 ) ;
#111 = APPROVAL_DATE_TIME ( #81, #86 ) ;
#112 = CONICAL_SURFACE ( 'NONE', #23, 0.1250000000000000000, 0.7853981633974512766 ) ;
#113 = APPROVAL_PERSON_ORGANIZATION ( #16, #197, #199 ) ;
#114 = ADVANCED_FACE ( 'NONE', ( #5, #106 ), #166, .T. ) ;
#115 = PRODUCT_DEFINITION_FORMATION_WITH_SPECIFIED_SOURCE ( 'ANY', '', #72, .NOT_KNOWN. ) ;
#116 = DIRECTION ( 'NONE',  ( 0.0000000000000000000, 1.000000000000000000, 0.0000000000000000000 ) ) ;
#117 = VERTEX_POINT ( 'NONE', #130 ) ;
#118 = DIRECTION ( 'NONE',  ( -3.491481338843133355E-15, 1.224646799147353207E-16, -1.000000000000000000 ) ) ;
#119 = AXIS2_PLACEMENT_3D ( 'NONE', #22, #129, #184 ) ;
#120 = DIRECTION ( 'NONE',  ( 0.0000000000000000000, 1.000000000000000000, 0.0000000000000000000 ) ) ;
#121 = PERSON_AND_ORGANIZATION_ROLE ( 'design_supplier' ) ;
#122 = APPROVAL_DATE_TIME ( #97, #197 ) ;
#123 = CALENDAR_DATE ( 2021, 6, 10 ) ;
#124 = PERSON_AND_ORGANIZATION_ROLE ( 'creator' ) ;
#125 = DATE_AND_TIME ( #123, #159 ) ;
#126 = ADVANCED_FACE ( 'NONE', ( #182, #24 ), #56, .T. ) ;
#127 = CIRCLE ( 'NONE', #39, 0.1250000000000000000 ) ;
#128 = ORIENTED_EDGE ( 'NONE', *, *, #84, .F. ) ;
#129 = DIRECTION ( 'NONE',  ( -3.491481338843133355E-15, 1.224646799147353207E-16, -1.000000000000000000 ) ) ;
#130 = CARTESIAN_POINT ( 'NONE',  ( 1.047444401652940007E-13, 0.1249999999999963224, 30.00000000000000000 ) ) ;
#131 = CC_DESIGN_DATE_AND_TIME_ASSIGNMENT ( #45, #28, ( #65 ) ) ;
#132 = DIRECTION ( 'NONE',  ( 4.275831445896958607E-31, 1.000000000000000000, 1.224646799147353454E-16 ) ) ;
#133 = DIRECTION ( 'NONE',  ( 0.0000000000000000000, 1.000000000000000000, 0.0000000000000000000 ) ) ;
#134 = AXIS2_PLACEMENT_3D ( 'NONE', #198, #196, #116 ) ;
#135 = CC_DESIGN_APPROVAL ( #197, ( #100 ) ) ;
#136 = PERSON_AND_ORGANIZATION_ROLE ( 'creator' ) ;
#137 = ADVANCED_FACE ( 'NONE', ( #148 ), #90, .F. ) ;
#138 = APPROVAL_STATUS ( 'not_yet_approved' ) ;
#139 = COORDINATED_UNIVERSAL_TIME_OFFSET ( 1, 0, .AHEAD. ) ;
#140 = APPROVAL_ROLE ( '' ) ;
#141 = ORIENTED_EDGE ( 'NONE', *, *, #176, .F. ) ;
#142 = EDGE_LOOP ( 'NONE', ( #193 ) ) ;
#143 = EDGE_LOOP ( 'NONE', ( #141 ) ) ;
#144 =( GEOMETRIC_REPRESENTATION_CONTEXT ( 3 ) GLOBAL_UNCERTAINTY_ASSIGNED_CONTEXT ( ( #30 ) ) GLOBAL_UNIT_ASSIGNED_CONTEXT ( ( #48, #186, #99 ) ) REPRESENTATION_CONTEXT ( 'NONE', 'WORKASPACE' ) );
#145 = CARTESIAN_POINT ( 'NONE',  ( 2.094888803305880013E-14, 1.687229755494556966E-33, 6.000000000000000000 ) ) ;
#146 = VERTEX_POINT ( 'NONE', #54 ) ;
#147 = DIRECTION ( 'NONE',  ( -3.491481338843133355E-15, 1.224646799147353207E-16, -1.000000000000000000 ) ) ;
#148 = FACE_OUTER_BOUND ( 'NONE', #142, .T. ) ;
#149 = PERSON_AND_ORGANIZATION ( #191, #62 ) ;
#150 = EDGE_CURVE ( 'NONE', #117, #117, #127, .T. ) ;
#151 = CIRCLE ( 'NONE', #119, 0.2249999999999963696 ) ;
#152 = DIRECTION ( 'NONE',  ( 1.000000000000000000, 0.0000000000000000000, 0.0000000000000000000 ) ) ;
#153 = EDGE_CURVE ( 'NONE', #38, #38, #151, .T. ) ;
#154 = APPLICATION_PROTOCOL_DEFINITION ( 'international standard', 'config_control_design', 1994, #158 ) ;
#155 = APPROVAL_DATE_TIME ( #178, #173 ) ;
#156 = CIRCLE ( 'NONE', #57, 0.2249999999999970635 ) ;
#157 = AXIS2_PLACEMENT_3D ( 'NONE', #98, #31, #152 ) ;
#158 = APPLICATION_CONTEXT ( 'configuration controlled 3d designs of mechanical parts and assemblies' ) ;
#159 = LOCAL_TIME ( 10, 24, 21.00000000000000000, #139 ) ;
#160 = DESIGN_CONTEXT ( 'detailed design', #40, 'design' ) ;
#161 = EDGE_LOOP ( 'NONE', ( #203 ) ) ;
#162 = DIRECTION ( 'NONE',  ( 0.0000000000000000000, 1.000000000000000000, 0.0000000000000000000 ) ) ;
#163 = DIRECTION ( 'NONE',  ( 4.275831445896958607E-31, 1.000000000000000000, 1.224646799147353207E-16 ) ) ;
#164 = DIRECTION ( 'NONE',  ( -4.275831445896958607E-31, -1.000000000000000000, -1.224646799147353207E-16 ) ) ;
#165 = FACE_BOUND ( 'NONE', #161, .T. ) ;
#166 = CYLINDRICAL_SURFACE ( 'NONE', #15, 0.2249999999999967026 ) ;
#167 = LOCAL_TIME ( 10, 24, 21.00000000000000000, #47 ) ;
#168 = COORDINATED_UNIVERSAL_TIME_OFFSET ( 1, 0, .AHEAD. ) ;
#169 = PERSON_AND_ORGANIZATION ( #191, #62 ) ;
#170 = CC_DESIGN_PERSON_AND_ORGANIZATION_ASSIGNMENT ( #200, #185, ( #65 ) ) ;
#171 = APPLICATION_PROTOCOL_DEFINITION ( 'international standard', 'config_control_design', 1994, #40 ) ;
#172 = CARTESIAN_POINT ( 'NONE',  ( 1.043952920314096810E-13, 0.2249999999999963418, 29.89999999999999858 ) ) ;
#173 = APPROVAL ( #13, 'UNSPECIFIED' ) ;
#174 = AXIS2_PLACEMENT_3D ( 'NONE', #107, #88, #7 ) ;
#175 = MANIFOLD_SOLID_BREP ( 'Corps-Déplacer/Copier1[2]', #68 ) ;
#176 = EDGE_CURVE ( 'NONE', #105, #105, #156, .T. ) ;
#177 = LOCAL_TIME ( 10, 24, 21.00000000000000000, #168 ) ;
#178 = DATE_AND_TIME ( #2, #6 ) ;
#179 = ORIENTED_EDGE ( 'NONE', *, *, #153, .T. ) ;
#180 = FACE_OUTER_BOUND ( 'NONE', #85, .T. ) ;
#181 = CARTESIAN_POINT ( 'NONE',  ( 1.047444401652940007E-13, -3.673940397442059178E-15, 30.00000000000000000 ) ) ;
#182 = FACE_OUTER_BOUND ( 'NONE', #143, .T. ) ;
#183 = PLANE ( 'NONE',  #82 ) ;
#184 = DIRECTION ( 'NONE',  ( 4.279844320860593210E-31, 1.000000000000000000, 1.204669080539468819E-16 ) ) ;
#185 = PERSON_AND_ORGANIZATION_ROLE ( 'classification_officer' ) ;
#186 =( NAMED_UNIT ( * ) PLANE_ANGLE_UNIT ( ) SI_UNIT ( $, .RADIAN. ) );
#187 = PERSON_AND_ORGANIZATION_ROLE ( 'design_owner' ) ;
#188 = DATE_TIME_ROLE ( 'creation_date' ) ;
#189 = EDGE_CURVE ( 'NONE', #80, #80, #91, .T. ) ;
#190 = AXIS2_PLACEMENT_3D ( 'NONE', #194, #104, #164 ) ;
#191 = PERSON ( 'UNSPECIFIED', 'UNSPECIFIED', 'UNSPECIFIED', ('UNSPECIFIED'), ('UNSPECIFIED'), ('UNSPECIFIED') ) ;
#192 = ORIENTED_EDGE ( 'NONE', *, *, #189, .F. ) ;
#193 = ORIENTED_EDGE ( 'NONE', *, *, #176, .T. ) ;
#194 = CARTESIAN_POINT ( 'NONE',  ( 2.094888803305880013E-14, 1.687229755494556966E-33, 6.000000000000000000 ) ) ;
#195 = FACE_OUTER_BOUND ( 'NONE', #64, .T. ) ;
#196 = DIRECTION ( 'NONE',  ( -3.491481338843133355E-15, 1.224646799147353207E-16, -1.000000000000000000 ) ) ;
#197 = APPROVAL ( #138, 'UNSPECIFIED' ) ;
#198 = CARTESIAN_POINT ( 'NONE',  ( 2.094888803305880013E-14, -7.347880794884119736E-16, 6.000000000000000000 ) ) ;
#199 = APPROVAL_ROLE ( '' ) ;
#200 = PERSON_AND_ORGANIZATION ( #191, #62 ) ;
#201 = APPROVAL_ROLE ( '' ) ;
#202 = PERSON_AND_ORGANIZATION ( #191, #62 ) ;
#203 = ORIENTED_EDGE ( 'NONE', *, *, #150, .T. ) ;
ENDSEC;
END-ISO-10303-21;
