ISO-10303-21;
HEADER;
FILE_DESCRIPTION (( 'STEP AP203' ),
    '1' );
FILE_NAME ('19790.step',
    '2021-09-03T07:21:24',
    ( '' ),
    ( '' ),
    'SwSTEP 2.0',
    'SolidWorks 2019',
    '' );
FILE_SCHEMA (( 'CONFIG_CONTROL_DESIGN' ));
ENDSEC;

DATA;
#1 = CALENDAR_DATE ( 2021, 3, 9 ) ;
#2 = ADVANCED_FACE ( 'NONE', ( #206 ), #77, .F. ) ;
#3 = DIRECTION ( 'NONE',  ( 4.275831445896959482E-31, 1.000000000000000000, 1.224646799147353207E-16 ) ) ;
#4 = CONICAL_SURFACE ( 'NONE', #202, 2.324999999999993960, 1.029744258676649649 ) ;
#5 = CARTESIAN_POINT ( 'NONE',  ( 0.0000000000000000000, 0.0000000000000000000, 0.0000000000000000000 ) ) ;
#6 = DIRECTION ( 'NONE',  ( -3.491481338843133355E-15, 1.224646799147353207E-16, -1.000000000000000000 ) ) ;
#7 = ADVANCED_FACE ( 'NONE', ( #279 ), #43, .T. ) ;
#8 = CARTESIAN_POINT ( 'NONE',  ( 2.847303808017581151E-16, -2.324999999999995293, -2.847303808017600379E-16 ) ) ;
#9 = DIRECTION ( 'NONE',  ( -3.491481338843133355E-15, 1.224646799147353207E-16, -1.000000000000000000 ) ) ;
#10 = PERSON_AND_ORGANIZATION ( #153, #235 ) ;
#11 = ORIENTED_EDGE ( 'NONE', *, *, #253, .F. ) ;
#12 = DIRECTION ( 'NONE',  ( 3.491481338843133355E-15, -1.224646799147353207E-16, 1.000000000000000000 ) ) ;
#13 = CIRCLE ( 'NONE', #56, 2.324999999999996181 ) ;
#14 = CARTESIAN_POINT ( 'NONE',  ( 0.0000000000000000000, 0.0000000000000000000, 0.0000000000000000000 ) ) ;
#15 = CC_DESIGN_PERSON_AND_ORGANIZATION_ASSIGNMENT ( #332, #272, ( #245 ) ) ;
#16 = AXIS2_PLACEMENT_3D ( 'NONE', #5, #6, #120 ) ;
#17 = ORIENTED_EDGE ( 'NONE', *, *, #168, .T. ) ;
#18 = SHAPE_DEFINITION_REPRESENTATION ( #169, #54 ) ;
#19 = CIRCLE ( 'NONE', #210, 2.324999999999996181 ) ;
#20 = COORDINATED_UNIVERSAL_TIME_OFFSET ( 1, 0, .AHEAD. ) ;
#21 = CC_DESIGN_PERSON_AND_ORGANIZATION_ASSIGNMENT ( #230, #330, ( #314 ) ) ;
#22 = ORIENTED_EDGE ( 'NONE', *, *, #233, .T. ) ;
#23 = DIRECTION ( 'NONE',  ( -2.468850131082284276E-15, 0.7071067811865422437, -0.7071067811865527908 ) ) ;
#24 = EDGE_LOOP ( 'NONE', ( #11, #289, #234, #155 ) ) ;
#25 = VECTOR ( 'NONE', #335, 1000.000000000000000 ) ;
#26 = PRODUCT_DEFINITION_FORMATION_WITH_SPECIFIED_SOURCE ( 'ANY', '', #109, .NOT_KNOWN. ) ;
#27 = CARTESIAN_POINT ( 'NONE',  ( 2.025059176529017346E-13, 1.824999999999994182, 58.00000000000000000 ) ) ;
#28 = DIRECTION ( 'NONE',  ( -3.491481338843133355E-15, 1.224646799147353207E-16, -1.000000000000000000 ) ) ;
#29 = ORIENTED_EDGE ( 'NONE', *, *, #176, .T. ) ;
#30 = CC_DESIGN_PERSON_AND_ORGANIZATION_ASSIGNMENT ( #147, #37, ( #26 ) ) ;
#31 = CIRCLE ( 'NONE', #48, 2.324999999999993960 ) ;
#32 = CARTESIAN_POINT ( 'NONE',  ( 0.0000000000000000000, 0.0000000000000000000, 0.0000000000000000000 ) ) ;
#33 = DIRECTION ( 'NONE',  ( -3.491481338843133355E-15, 1.224646799147353207E-16, -1.000000000000000000 ) ) ;
#34 = DIRECTION ( 'NONE',  ( 0.0000000000000000000, 0.0000000000000000000, 1.000000000000000000 ) ) ;
#35 = DIRECTION ( 'NONE',  ( 0.0000000000000000000, 1.000000000000000000, 0.0000000000000000000 ) ) ;
#36 = AXIS2_PLACEMENT_3D ( 'NONE', #129, #301, #218 ) ;
#37 = PERSON_AND_ORGANIZATION_ROLE ( 'design_supplier' ) ;
#38 = DIRECTION ( 'NONE',  ( 0.0000000000000000000, 1.000000000000000000, 0.0000000000000000000 ) ) ;
#39 = EDGE_LOOP ( 'NONE', ( #29, #158, #82, #150 ) ) ;
#40 = APPROVAL_STATUS ( 'not_yet_approved' ) ;
#41 = UNCERTAINTY_MEASURE_WITH_UNIT (LENGTH_MEASURE( 1.000000000000000082E-05 ), #146, 'distance_accuracy_value', 'NONE');
#42 = DIRECTION ( 'NONE',  ( 0.0000000000000000000, 1.000000000000000000, 0.0000000000000000000 ) ) ;
#43 = CYLINDRICAL_SURFACE ( 'NONE', #271, 2.324999999999995293 ) ;
#44 = COORDINATED_UNIVERSAL_TIME_OFFSET ( 1, 0, .AHEAD. ) ;
#45 = DIRECTION ( 'NONE',  ( 1.903218546456022717E-15, 0.8571673007021097801, 0.5150380749100585964 ) ) ;
#46 = AXIS2_PLACEMENT_3D ( 'NONE', #211, #34, #52 ) ;
#47 = DATE_AND_TIME ( #68, #177 ) ;
#48 = AXIS2_PLACEMENT_3D ( 'NONE', #299, #324, #285 ) ;
#49 = CARTESIAN_POINT ( 'NONE',  ( 2.027294156937461117E-13, -1.825000000000008393, 58.00000000000000000 ) ) ;
#50 = ORIENTED_EDGE ( 'NONE', *, *, #190, .T. ) ;
#51 = LOCAL_TIME ( 9, 21, 24.00000000000000000, #173 ) ;
#52 = DIRECTION ( 'NONE',  ( 1.000000000000000000, 0.0000000000000000000, 0.0000000000000000000 ) ) ;
#53 = EDGE_LOOP ( 'NONE', ( #278, #124 ) ) ;
#54 = ADVANCED_BREP_SHAPE_REPRESENTATION ( '19790', ( #167, #57, #46 ), #196 ) ;
#55 = ADVANCED_FACE ( 'NONE', ( #295 ), #160, .T. ) ;
#56 = AXIS2_PLACEMENT_3D ( 'NONE', #270, #33, #85 ) ;
#57 = MANIFOLD_SOLID_BREP ( 'Corps-Déplacer/Copier1[2]', #101 ) ;
#58 = ORIENTED_EDGE ( 'NONE', *, *, #319, .F. ) ;
#59 = CYLINDRICAL_SURFACE ( 'NONE', #126, 2.324999999999998845 ) ;
#60 = ORIENTED_EDGE ( 'NONE', *, *, #240, .F. ) ;
#61 = CARTESIAN_POINT ( 'NONE',  ( 2.025059176529017346E-13, -7.102951435054648059E-15, 58.00000000000000000 ) ) ;
#62 = LINE ( 'NONE', #266, #111 ) ;
#63 = CARTESIAN_POINT ( 'NONE',  ( 0.0000000000000000000, 0.0000000000000000000, 0.0000000000000000000 ) ) ;
#64 = CARTESIAN_POINT ( 'NONE',  ( 4.877602709699610171E-15, -2.324999999999993960, 1.397000939239089412 ) ) ;
#65 = DIRECTION ( 'NONE',  ( -3.491481338843133355E-15, 1.224646799147353207E-16, -1.000000000000000000 ) ) ;
#66 = DIRECTION ( 'NONE',  ( 0.0000000000000000000, 1.000000000000000000, 0.0000000000000000000 ) ) ;
#67 = COORDINATED_UNIVERSAL_TIME_OFFSET ( 1, 0, .AHEAD. ) ;
#68 = CALENDAR_DATE ( 2021, 3, 9 ) ;
#69 = FACE_OUTER_BOUND ( 'NONE', #236, .T. ) ;
#70 = DATE_AND_TIME ( #100, #128 ) ;
#71 = ORIENTED_EDGE ( 'NONE', *, *, #253, .T. ) ;
#72 = DIRECTION ( 'NONE',  ( -3.491481338843133355E-15, 1.224646799147353207E-16, -1.000000000000000000 ) ) ;
#73 = EDGE_CURVE ( 'NONE', #186, #247, #13, .T. ) ;
#74 = ORIENTED_EDGE ( 'NONE', *, *, #181, .T. ) ;
#75 = COORDINATED_UNIVERSAL_TIME_OFFSET ( 1, 0, .AHEAD. ) ;
#76 = AXIS2_PLACEMENT_3D ( 'NONE', #246, #292, #320 ) ;
#77 = PLANE ( 'NONE',  #238 ) ;
#78 = ORIENTED_EDGE ( 'NONE', *, *, #176, .F. ) ;
#79 = LINE ( 'NONE', #300, #226 ) ;
#80 = EDGE_CURVE ( 'NONE', #182, #256, #249, .T. ) ;
#81 = CIRCLE ( 'NONE', #106, 2.324999999999996181 ) ;
#82 = ORIENTED_EDGE ( 'NONE', *, *, #73, .F. ) ;
#83 = APPROVAL ( #40, 'UNSPECIFIED' ) ;
#84 = CARTESIAN_POINT ( 'NONE',  ( 4.877602709699610960E-15, -1.710832728644997029E-16, 1.397000939239089412 ) ) ;
#85 = DIRECTION ( 'NONE',  ( 0.0000000000000000000, 1.000000000000000000, 0.0000000000000000000 ) ) ;
#86 = VECTOR ( 'NONE', #212, 1000.000000000000000 ) ;
#87 = CARTESIAN_POINT ( 'NONE',  ( 6.284666409917640040E-14, 2.324999999999993960, 18.00000000000000000 ) ) ;
#88 = FACE_OUTER_BOUND ( 'NONE', #191, .T. ) ;
#89 = DIRECTION ( 'NONE',  ( 4.275831445896958607E-31, 1.000000000000000000, 1.224646799147353207E-16 ) ) ;
#90 = DIRECTION ( 'NONE',  ( 0.0000000000000000000, 1.000000000000000000, 0.0000000000000000000 ) ) ;
#91 = CC_DESIGN_PERSON_AND_ORGANIZATION_ASSIGNMENT ( #275, #255, ( #26 ) ) ;
#92 = APPROVAL_STATUS ( 'not_yet_approved' ) ;
#93 = DIRECTION ( 'NONE',  ( -3.491481338843133355E-15, 1.224646799147353207E-16, -1.000000000000000000 ) ) ;
#94 = ORIENTED_EDGE ( 'NONE', *, *, #136, .T. ) ;
#95 = APPROVAL_DATE_TIME ( #326, #303 ) ;
#96 = CIRCLE ( 'NONE', #259, 2.324999999999996181 ) ;
#97 = SECURITY_CLASSIFICATION_LEVEL ( 'unclassified' ) ;
#98 = LINE ( 'NONE', #102, #86 ) ;
#99 = CC_DESIGN_APPROVAL ( #303, ( #26 ) ) ;
#100 = CALENDAR_DATE ( 2021, 3, 9 ) ;
#101 = CLOSED_SHELL ( 'NONE', ( #283, #223, #208, #7, #227 ) ) ;
#102 = CARTESIAN_POINT ( 'NONE',  ( 9.941308111710409624E-31, 2.324999999999995293, 2.847303808017590518E-16 ) ) ;
#103 = CLOSED_SHELL ( 'NONE', ( #55, #257, #2, #297, #114, #327 ) ) ;
#104 = DIRECTION ( 'NONE',  ( -3.491481338843133355E-15, 1.224646799147353207E-16, -1.000000000000000000 ) ) ;
#105 = VERTEX_POINT ( 'NONE', #123 ) ;
#106 = AXIS2_PLACEMENT_3D ( 'NONE', #224, #104, #90 ) ;
#107 = CARTESIAN_POINT ( 'NONE',  ( 1.320881509221299184E-13, -2.325000000000008171, 57.49999999999999289 ) ) ;
#108 = PERSON_AND_ORGANIZATION ( #153, #235 ) ;
#109 = PRODUCT ( '19790', '19790', '', ( #273 ) ) ;
#110 = EDGE_CURVE ( 'NONE', #336, #151, #265, .T. ) ;
#111 = VECTOR ( 'NONE', #93, 1000.000000000000000 ) ;
#112 = FACE_OUTER_BOUND ( 'NONE', #165, .T. ) ;
#113 = CARTESIAN_POINT ( 'NONE',  ( 2.025059176529017346E-13, 1.368530801678935625E-32, 58.00000000000000000 ) ) ;
#114 = ADVANCED_FACE ( 'NONE', ( #127 ), #188, .T. ) ;
#115 = CIRCLE ( 'NONE', #293, 2.324999999999993960 ) ;
#116 = DIRECTION ( 'NONE',  ( -4.275831445896958607E-31, -1.000000000000000000, -1.224646799147353207E-16 ) ) ;
#117 = CARTESIAN_POINT ( 'NONE',  ( 2.007601769834801490E-13, -7.041719095097280485E-15, 57.49999999999999289 ) ) ;
#118 = CALENDAR_DATE ( 2021, 3, 9 ) ;
#119 = CARTESIAN_POINT ( 'NONE',  ( 6.284666409917640040E-14, 1.743470747344403311E-32, 18.00000000000000000 ) ) ;
#120 = DIRECTION ( 'NONE',  ( 4.275831445896958607E-31, 1.000000000000000000, 1.224646799147353207E-16 ) ) ;
#121 = EDGE_LOOP ( 'NONE', ( #225, #71, #78, #263 ) ) ;
#122 = CARTESIAN_POINT ( 'NONE',  ( 1.320881509221300194E-13, -2.324999999999998401, 18.00000000000000000 ) ) ;
#123 = CARTESIAN_POINT ( 'NONE',  ( 4.877602709699610171E-15, -2.324999999999993960, 1.397000939239089412 ) ) ;
#124 = ORIENTED_EDGE ( 'NONE', *, *, #319, .T. ) ;
#125 = DATE_AND_TIME ( #118, #268 ) ;
#126 = AXIS2_PLACEMENT_3D ( 'NONE', #63, #170, #3 ) ;
#127 = FACE_OUTER_BOUND ( 'NONE', #24, .T. ) ;
#128 = LOCAL_TIME ( 9, 21, 24.00000000000000000, #75 ) ;
#129 = CARTESIAN_POINT ( 'NONE',  ( 2.025059176529017346E-13, -7.102951435054648059E-15, 58.00000000000000000 ) ) ;
#130 = EDGE_CURVE ( 'NONE', #157, #105, #262, .T. ) ;
#131 = ORIENTED_EDGE ( 'NONE', *, *, #233, .F. ) ;
#132 = VECTOR ( 'NONE', #174, 1000.000000000000000 ) ;
#133 = APPROVAL_PERSON_ORGANIZATION ( #251, #187, #199 ) ;
#134 = DIRECTION ( 'NONE',  ( 4.275831445896958607E-31, 1.000000000000000000, 1.224646799147353207E-16 ) ) ;
#135 = FACE_OUTER_BOUND ( 'NONE', #329, .T. ) ;
#136 = EDGE_CURVE ( 'NONE', #157, #198, #79, .T. ) ;
#137 = VECTOR ( 'NONE', #242, 999.9999999999998863 ) ;
#138 = FACE_OUTER_BOUND ( 'NONE', #175, .T. ) ;
#139 = PERSON_AND_ORGANIZATION_ROLE ( 'design_owner' ) ;
#140 = EDGE_LOOP ( 'NONE', ( #315, #203, #74, #252 ) ) ;
#141 = CC_DESIGN_PERSON_AND_ORGANIZATION_ASSIGNMENT ( #108, #139, ( #109 ) ) ;
#142 = FACE_OUTER_BOUND ( 'NONE', #294, .T. ) ;
#143 = CARTESIAN_POINT ( 'NONE',  ( 9.941308111710425388E-31, 2.324999999999998845, 2.847303808017594956E-16 ) ) ;
#144 = VECTOR ( 'NONE', #290, 1000.000000000000000 ) ;
#145 = APPROVAL_ROLE ( '' ) ;
#146 =( LENGTH_UNIT ( ) NAMED_UNIT ( * ) SI_UNIT ( .MILLI., .METRE. ) );
#147 = PERSON_AND_ORGANIZATION ( #153, #235 ) ;
#148 = CARTESIAN_POINT ( 'NONE',  ( 2.007601769834801490E-13, -7.041719095097280485E-15, 57.49999999999999289 ) ) ;
#149 = CALENDAR_DATE ( 2021, 3, 9 ) ;
#150 = ORIENTED_EDGE ( 'NONE', *, *, #200, .F. ) ;
#151 = VERTEX_POINT ( 'NONE', #178 ) ;
#152 = LINE ( 'NONE', #49, #137 ) ;
#153 = PERSON ( 'UNSPECIFIED', 'UNSPECIFIED', 'UNSPECIFIED', ('UNSPECIFIED'), ('UNSPECIFIED'), ('UNSPECIFIED') ) ;
#154 =( NAMED_UNIT ( * ) SI_UNIT ( $, .STERADIAN. ) SOLID_ANGLE_UNIT ( ) );
#155 = ORIENTED_EDGE ( 'NONE', *, *, #110, .F. ) ;
#156 = AXIS2_PLACEMENT_3D ( 'NONE', #119, #248, #116 ) ;
#157 = VERTEX_POINT ( 'NONE', #14 ) ;
#158 = ORIENTED_EDGE ( 'NONE', *, *, #288, .T. ) ;
#159 = APPLICATION_CONTEXT ( 'configuration controlled 3d designs of mechanical parts and assemblies' ) ;
#160 = CONICAL_SURFACE ( 'NONE', #254, 1.825000000000001288, 0.7853981633974407295 ) ;
#161 = AXIS2_PLACEMENT_3D ( 'NONE', #32, #65, #222 ) ;
#162 = ORIENTED_EDGE ( 'NONE', *, *, #181, .F. ) ;
#163 = DIRECTION ( 'NONE',  ( -3.491481338843133355E-15, 1.224646799147353207E-16, -1.000000000000000000 ) ) ;
#164 = PRODUCT_RELATED_PRODUCT_CATEGORY ( 'detail', '', ( #109 ) ) ;
#165 = EDGE_LOOP ( 'NONE', ( #310, #325 ) ) ;
#166 = CIRCLE ( 'NONE', #184, 2.325000000000001066 ) ;
#167 = MANIFOLD_SOLID_BREP ( 'Corps-Déplacer/Copier1[1]', #103 ) ;
#168 = EDGE_CURVE ( 'NONE', #219, #228, #81, .T. ) ;
#169 = PRODUCT_DEFINITION_SHAPE ( 'NONE', 'NONE',  #314 ) ;
#170 = DIRECTION ( 'NONE',  ( -3.491481338843133355E-15, 1.224646799147353207E-16, -1.000000000000000000 ) ) ;
#171 = ORIENTED_EDGE ( 'NONE', *, *, #136, .F. ) ;
#172 = AXIS2_PLACEMENT_3D ( 'NONE', #291, #163, #38 ) ;
#173 = COORDINATED_UNIVERSAL_TIME_OFFSET ( 1, 0, .AHEAD. ) ;
#174 = DIRECTION ( 'NONE',  ( -3.491481338843133355E-15, 1.224646799147353207E-16, -1.000000000000000000 ) ) ;
#175 = EDGE_LOOP ( 'NONE', ( #302, #94, #22 ) ) ;
#176 = EDGE_CURVE ( 'NONE', #151, #336, #166, .T. ) ;
#177 = LOCAL_TIME ( 9, 21, 24.00000000000000000, #20 ) ;
#178 = CARTESIAN_POINT ( 'NONE',  ( 2.007601769834801490E-13, 2.324999999999993960, 57.49999999999999289 ) ) ;
#179 = DIRECTION ( 'NONE',  ( -4.275831445896958607E-31, -1.000000000000000000, -1.224646799147353207E-16 ) ) ;
#180 = CARTESIAN_POINT ( 'NONE',  ( 2.025059176529017346E-13, 1.824999999999994182, 58.00000000000000000 ) ) ;
#181 = EDGE_CURVE ( 'NONE', #219, #198, #98, .T. ) ;
#182 = VERTEX_POINT ( 'NONE', #287 ) ;
#183 = CYLINDRICAL_SURFACE ( 'NONE', #16, 2.324999999999995293 ) ;
#184 = AXIS2_PLACEMENT_3D ( 'NONE', #148, #323, #42 ) ;
#185 = DIRECTION ( 'NONE',  ( -3.491481338843133355E-15, 1.224646799147353207E-16, -1.000000000000000000 ) ) ;
#186 = VERTEX_POINT ( 'NONE', #87 ) ;
#187 = APPROVAL ( #305, 'UNSPECIFIED' ) ;
#188 = CONICAL_SURFACE ( 'NONE', #36, 1.825000000000001288, 0.7853981633974407295 ) ;
#189 = CC_DESIGN_SECURITY_CLASSIFICATION ( #245, ( #26 ) ) ;
#190 = EDGE_CURVE ( 'NONE', #228, #105, #216, .T. ) ;
#191 = EDGE_LOOP ( 'NONE', ( #337, #60 ) ) ;
#192 = DIRECTION ( 'NONE',  ( -3.491481338843133355E-15, 1.224646799147353207E-16, -1.000000000000000000 ) ) ;
#193 = LINE ( 'NONE', #143, #132 ) ;
#194 = PLANE ( 'NONE',  #156 ) ;
#195 = CARTESIAN_POINT ( 'NONE',  ( 2.025059176529017346E-13, -7.102951435054648059E-15, 58.00000000000000000 ) ) ;
#196 =( GEOMETRIC_REPRESENTATION_CONTEXT ( 3 ) GLOBAL_UNCERTAINTY_ASSIGNED_CONTEXT ( ( #41 ) ) GLOBAL_UNIT_ASSIGNED_CONTEXT ( ( #146, #284, #154 ) ) REPRESENTATION_CONTEXT ( 'NONE', 'WORKASPACE' ) );
#197 = CARTESIAN_POINT ( 'NONE',  ( 3.414686378523973855E-14, -2.324999999999998401, 18.00000000000000000 ) ) ;
#198 = VERTEX_POINT ( 'NONE', #229 ) ;
#199 = APPROVAL_ROLE ( '' ) ;
#200 = EDGE_CURVE ( 'NONE', #151, #186, #193, .T. ) ;
#201 = ORIENTED_EDGE ( 'NONE', *, *, #200, .T. ) ;
#202 = AXIS2_PLACEMENT_3D ( 'NONE', #244, #12, #317 ) ;
#203 = ORIENTED_EDGE ( 'NONE', *, *, #240, .T. ) ;
#204 = LOCAL_TIME ( 9, 21, 24.00000000000000000, #67 ) ;
#205 = APPROVAL_DATE_TIME ( #231, #83 ) ;
#206 = FACE_OUTER_BOUND ( 'NONE', #53, .T. ) ;
#207 = PERSON_AND_ORGANIZATION ( #153, #235 ) ;
#208 = ADVANCED_FACE ( 'NONE', ( #142 ), #312, .T. ) ;
#209 = LINE ( 'NONE', #180, #286 ) ;
#210 = AXIS2_PLACEMENT_3D ( 'NONE', #318, #192, #321 ) ;
#211 = CARTESIAN_POINT ( 'NONE',  ( 0.0000000000000000000, 0.0000000000000000000, 0.0000000000000000000 ) ) ;
#212 = DIRECTION ( 'NONE',  ( -3.491481338843133355E-15, 1.224646799147353207E-16, -1.000000000000000000 ) ) ;
#213 = DIRECTION ( 'NONE',  ( 3.313427861311381953E-31, 1.000000000000000000, 9.326470300950599540E-17 ) ) ;
#214 = APPLICATION_PROTOCOL_DEFINITION ( 'international standard', 'config_control_design', 1994, #334 ) ;
#215 = CC_DESIGN_APPROVAL ( #83, ( #314 ) ) ;
#216 = LINE ( 'NONE', #8, #144 ) ;
#217 = EDGE_CURVE ( 'NONE', #256, #182, #220, .T. ) ;
#218 = DIRECTION ( 'NONE',  ( 0.0000000000000000000, 1.000000000000000000, 0.0000000000000000000 ) ) ;
#219 = VERTEX_POINT ( 'NONE', #264 ) ;
#220 = CIRCLE ( 'NONE', #311, 1.825000000000001288 ) ;
#221 = CYLINDRICAL_SURFACE ( 'NONE', #161, 2.324999999999998845 ) ;
#222 = DIRECTION ( 'NONE',  ( 4.275831445896959482E-31, 1.000000000000000000, 1.224646799147353207E-16 ) ) ;
#223 = ADVANCED_FACE ( 'NONE', ( #138 ), #4, .T. ) ;
#224 = CARTESIAN_POINT ( 'NONE',  ( 6.284666409917640040E-14, -2.204364238465235428E-15, 18.00000000000000000 ) ) ;
#225 = ORIENTED_EDGE ( 'NONE', *, *, #217, .T. ) ;
#226 = VECTOR ( 'NONE', #45, 999.9999999999998863 ) ;
#227 = ADVANCED_FACE ( 'NONE', ( #88 ), #194, .T. ) ;
#228 = VERTEX_POINT ( 'NONE', #197 ) ;
#229 = CARTESIAN_POINT ( 'NONE',  ( 5.162333090501370652E-15, 2.324999999999993960, 1.397000939239089634 ) ) ;
#230 = PERSON_AND_ORGANIZATION ( #153, #235 ) ;
#231 = DATE_AND_TIME ( #1, #204 ) ;
#232 = DESIGN_CONTEXT ( 'detailed design', #334, 'design' ) ;
#233 = EDGE_CURVE ( 'NONE', #198, #105, #31, .T. ) ;
#234 = ORIENTED_EDGE ( 'NONE', *, *, #250, .T. ) ;
#235 = ORGANIZATION ( 'UNSPECIFIED', 'UNSPECIFIED', '' ) ;
#236 = EDGE_LOOP ( 'NONE', ( #331, #277, #201, #58 ) ) ;
#237 = CARTESIAN_POINT ( 'NONE',  ( 6.284666409917640040E-14, 1.743470747344403311E-32, 18.00000000000000000 ) ) ;
#238 = AXIS2_PLACEMENT_3D ( 'NONE', #237, #306, #179 ) ;
#239 = FACE_OUTER_BOUND ( 'NONE', #39, .T. ) ;
#240 = EDGE_CURVE ( 'NONE', #228, #219, #96, .T. ) ;
#241 = APPLICATION_PROTOCOL_DEFINITION ( 'international standard', 'config_control_design', 1994, #159 ) ;
#242 = DIRECTION ( 'NONE',  ( -2.382254525458736008E-15, -0.7071067811865420216, -0.7071067811865531239 ) ) ;
#243 = APPROVAL_PERSON_ORGANIZATION ( #10, #83, #304 ) ;
#244 = CARTESIAN_POINT ( 'NONE',  ( 4.877602709699610960E-15, -1.710832728644997029E-16, 1.397000939239089412 ) ) ;
#245 = SECURITY_CLASSIFICATION ( '', '', #97 ) ;
#246 = CARTESIAN_POINT ( 'NONE',  ( 4.877602709699610960E-15, -1.710832728644997029E-16, 1.397000939239089412 ) ) ;
#247 = VERTEX_POINT ( 'NONE', #122 ) ;
#248 = DIRECTION ( 'NONE',  ( 3.491481338843133355E-15, -1.224646799147353207E-16, 1.000000000000000000 ) ) ;
#249 = CIRCLE ( 'NONE', #172, 1.825000000000001288 ) ;
#250 = EDGE_CURVE ( 'NONE', #256, #151, #209, .T. ) ;
#251 = PERSON_AND_ORGANIZATION ( #153, #235 ) ;
#252 = ORIENTED_EDGE ( 'NONE', *, *, #276, .F. ) ;
#253 = EDGE_CURVE ( 'NONE', #182, #336, #152, .T. ) ;
#254 = AXIS2_PLACEMENT_3D ( 'NONE', #195, #298, #66 ) ;
#255 = PERSON_AND_ORGANIZATION_ROLE ( 'creator' ) ;
#256 = VERTEX_POINT ( 'NONE', #27 ) ;
#257 = ADVANCED_FACE ( 'NONE', ( #239 ), #59, .T. ) ;
#258 = DIRECTION ( 'NONE',  ( -3.491481338843133355E-15, 1.224646799147353207E-16, -1.000000000000000000 ) ) ;
#259 = AXIS2_PLACEMENT_3D ( 'NONE', #261, #28, #333 ) ;
#260 = ORIENTED_EDGE ( 'NONE', *, *, #276, .T. ) ;
#261 = CARTESIAN_POINT ( 'NONE',  ( 6.284666409917640040E-14, -2.204364238465235428E-15, 18.00000000000000000 ) ) ;
#262 = LINE ( 'NONE', #64, #25 ) ;
#263 = ORIENTED_EDGE ( 'NONE', *, *, #250, .F. ) ;
#264 = CARTESIAN_POINT ( 'NONE',  ( 6.284666409917640040E-14, 2.324999999999993960, 18.00000000000000000 ) ) ;
#265 = CIRCLE ( 'NONE', #307, 2.325000000000001066 ) ;
#266 = CARTESIAN_POINT ( 'NONE',  ( 2.847303808017585095E-16, -2.324999999999998845, -2.847303808017604323E-16 ) ) ;
#267 = ORIENTED_EDGE ( 'NONE', *, *, #130, .T. ) ;
#268 = LOCAL_TIME ( 9, 21, 24.00000000000000000, #44 ) ;
#269 = CC_DESIGN_DATE_AND_TIME_ASSIGNMENT ( #125, #282, ( #314 ) ) ;
#270 = CARTESIAN_POINT ( 'NONE',  ( 6.284666409917640040E-14, -2.204364238465235428E-15, 18.00000000000000000 ) ) ;
#271 = AXIS2_PLACEMENT_3D ( 'NONE', #281, #185, #89 ) ;
#272 = PERSON_AND_ORGANIZATION_ROLE ( 'classification_officer' ) ;
#273 = MECHANICAL_CONTEXT ( 'NONE', #159, 'mechanical' ) ;
#274 = APPROVAL_PERSON_ORGANIZATION ( #207, #303, #145 ) ;
#275 = PERSON_AND_ORGANIZATION ( #153, #235 ) ;
#276 = EDGE_CURVE ( 'NONE', #105, #198, #115, .T. ) ;
#277 = ORIENTED_EDGE ( 'NONE', *, *, #110, .T. ) ;
#278 = ORIENTED_EDGE ( 'NONE', *, *, #73, .T. ) ;
#279 = FACE_OUTER_BOUND ( 'NONE', #140, .T. ) ;
#280 = APPROVAL_DATE_TIME ( #70, #187 ) ;
#281 = CARTESIAN_POINT ( 'NONE',  ( 0.0000000000000000000, 0.0000000000000000000, 0.0000000000000000000 ) ) ;
#282 = DATE_TIME_ROLE ( 'creation_date' ) ;
#283 = ADVANCED_FACE ( 'NONE', ( #135 ), #183, .T. ) ;
#284 =( NAMED_UNIT ( * ) PLANE_ANGLE_UNIT ( ) SI_UNIT ( $, .RADIAN. ) );
#285 = DIRECTION ( 'NONE',  ( 3.313427861311381953E-31, 1.000000000000000000, 9.326470300950599540E-17 ) ) ;
#286 = VECTOR ( 'NONE', #23, 1000.000000000000000 ) ;
#287 = CARTESIAN_POINT ( 'NONE',  ( 2.018871615290140217E-13, -1.825000000000008393, 58.00000000000000000 ) ) ;
#288 = EDGE_CURVE ( 'NONE', #336, #247, #62, .T. ) ;
#289 = ORIENTED_EDGE ( 'NONE', *, *, #80, .T. ) ;
#290 = DIRECTION ( 'NONE',  ( -3.491481338843133355E-15, 1.224646799147353207E-16, -1.000000000000000000 ) ) ;
#291 = CARTESIAN_POINT ( 'NONE',  ( 2.025059176529017346E-13, -7.102951435054648059E-15, 58.00000000000000000 ) ) ;
#292 = DIRECTION ( 'NONE',  ( 3.491481338843133355E-15, -1.224646799147353207E-16, 1.000000000000000000 ) ) ;
#293 = AXIS2_PLACEMENT_3D ( 'NONE', #84, #258, #213 ) ;
#294 = EDGE_LOOP ( 'NONE', ( #171, #267, #260 ) ) ;
#295 = FACE_OUTER_BOUND ( 'NONE', #121, .T. ) ;
#296 = PLANE ( 'NONE',  #313 ) ;
#297 = ADVANCED_FACE ( 'NONE', ( #69 ), #221, .T. ) ;
#298 = DIRECTION ( 'NONE',  ( -3.491481338843133355E-15, 1.224646799147353207E-16, -1.000000000000000000 ) ) ;
#299 = CARTESIAN_POINT ( 'NONE',  ( 4.877602709699610960E-15, -1.710832728644997029E-16, 1.397000939239089412 ) ) ;
#300 = CARTESIAN_POINT ( 'NONE',  ( 5.162333090501370652E-15, 2.324999999999993960, 1.397000939239089634 ) ) ;
#301 = DIRECTION ( 'NONE',  ( -3.491481338843133355E-15, 1.224646799147353207E-16, -1.000000000000000000 ) ) ;
#302 = ORIENTED_EDGE ( 'NONE', *, *, #130, .F. ) ;
#303 = APPROVAL ( #92, 'UNSPECIFIED' ) ;
#304 = APPROVAL_ROLE ( '' ) ;
#305 = APPROVAL_STATUS ( 'not_yet_approved' ) ;
#306 = DIRECTION ( 'NONE',  ( 3.491481338843133355E-15, -1.224646799147353207E-16, 1.000000000000000000 ) ) ;
#307 = AXIS2_PLACEMENT_3D ( 'NONE', #117, #322, #328 ) ;
#308 = DATE_TIME_ROLE ( 'classification_date' ) ;
#309 = CC_DESIGN_DATE_AND_TIME_ASSIGNMENT ( #47, #308, ( #245 ) ) ;
#310 = ORIENTED_EDGE ( 'NONE', *, *, #217, .F. ) ;
#311 = AXIS2_PLACEMENT_3D ( 'NONE', #61, #9, #35 ) ;
#312 = CONICAL_SURFACE ( 'NONE', #76, 2.324999999999993960, 1.029744258676649649 ) ;
#313 = AXIS2_PLACEMENT_3D ( 'NONE', #113, #72, #134 ) ;
#314 = PRODUCT_DEFINITION ( 'UNKNOWN', '', #26, #232 ) ;
#315 = ORIENTED_EDGE ( 'NONE', *, *, #190, .F. ) ;
#316 = CC_DESIGN_APPROVAL ( #187, ( #245 ) ) ;
#317 = DIRECTION ( 'NONE',  ( -3.313427861311381953E-31, -1.000000000000000000, -9.326470300950599540E-17 ) ) ;
#318 = CARTESIAN_POINT ( 'NONE',  ( 6.284666409917640040E-14, -2.204364238465235428E-15, 18.00000000000000000 ) ) ;
#319 = EDGE_CURVE ( 'NONE', #247, #186, #19, .T. ) ;
#320 = DIRECTION ( 'NONE',  ( -3.313427861311381953E-31, -1.000000000000000000, -9.326470300950599540E-17 ) ) ;
#321 = DIRECTION ( 'NONE',  ( 0.0000000000000000000, 1.000000000000000000, 0.0000000000000000000 ) ) ;
#322 = DIRECTION ( 'NONE',  ( -3.491481338843133355E-15, 1.224646799147353207E-16, -1.000000000000000000 ) ) ;
#323 = DIRECTION ( 'NONE',  ( -3.491481338843133355E-15, 1.224646799147353207E-16, -1.000000000000000000 ) ) ;
#324 = DIRECTION ( 'NONE',  ( -3.491481338843133355E-15, 1.224646799147353207E-16, -1.000000000000000000 ) ) ;
#325 = ORIENTED_EDGE ( 'NONE', *, *, #80, .F. ) ;
#326 = DATE_AND_TIME ( #149, #51 ) ;
#327 = ADVANCED_FACE ( 'NONE', ( #112 ), #296, .F. ) ;
#328 = DIRECTION ( 'NONE',  ( 0.0000000000000000000, 1.000000000000000000, 0.0000000000000000000 ) ) ;
#329 = EDGE_LOOP ( 'NONE', ( #17, #50, #131, #162 ) ) ;
#330 = PERSON_AND_ORGANIZATION_ROLE ( 'creator' ) ;
#331 = ORIENTED_EDGE ( 'NONE', *, *, #288, .F. ) ;
#332 = PERSON_AND_ORGANIZATION ( #153, #235 ) ;
#333 = DIRECTION ( 'NONE',  ( 0.0000000000000000000, 1.000000000000000000, 0.0000000000000000000 ) ) ;
#334 = APPLICATION_CONTEXT ( 'configuration controlled 3d designs of mechanical parts and assemblies' ) ;
#335 = DIRECTION ( 'NONE',  ( 1.798245827342160317E-15, -0.8571673007021098911, 0.5150380749100582634 ) ) ;
#336 = VERTEX_POINT ( 'NONE', #107 ) ;
#337 = ORIENTED_EDGE ( 'NONE', *, *, #168, .F. ) ;
ENDSEC;
END-ISO-10303-21;
