ISO-10303-21;
HEADER;
FILE_DESCRIPTION (( 'STEP AP203' ),
    '1' );
FILE_NAME ('197.step',
    '2021-10-06T08:24:20',
    ( '' ),
    ( '' ),
    'SwSTEP 2.0',
    'SolidWorks 2019',
    '' );
FILE_SCHEMA (( 'CONFIG_CONTROL_DESIGN' ));
ENDSEC;

DATA;
#1 = DIRECTION ( 'NONE',  ( -3.491481338843133355E-15, 1.224646799147353207E-16, -1.000000000000000000 ) ) ;
#2 = ORIENTED_EDGE ( 'NONE', *, *, #69, .T. ) ;
#3 = ADVANCED_BREP_SHAPE_REPRESENTATION ( '197', ( #168, #100, #23 ), #20 ) ;
#4 = AXIS2_PLACEMENT_3D ( 'NONE', #28, #106, #22 ) ;
#5 = DIRECTION ( 'NONE',  ( 3.491481338843133355E-15, -1.224646799147353207E-16, 1.000000000000000000 ) ) ;
#6 =( NAMED_UNIT ( * ) SI_UNIT ( $, .STERADIAN. ) SOLID_ANGLE_UNIT ( ) );
#7 = VERTEX_POINT ( 'NONE', #162 ) ;
#8 = CC_DESIGN_APPROVAL ( #152, ( #65 ) ) ;
#9 = DIRECTION ( 'NONE',  ( 3.491481338843133355E-15, -1.224646799147353207E-16, 1.000000000000000000 ) ) ;
#10 = CARTESIAN_POINT ( 'NONE',  ( 2.094888803305880013E-14, -7.347880794884119736E-16, 6.000000000000000000 ) ) ;
#11 = DATE_AND_TIME ( #29, #158 ) ;
#12 = CC_DESIGN_APPROVAL ( #125, ( #151 ) ) ;
#13 = APPROVAL_STATUS ( 'not_yet_approved' ) ;
#14 = UNCERTAINTY_MEASURE_WITH_UNIT (LENGTH_MEASURE( 1.000000000000000082E-05 ), #89, 'distance_accuracy_value', 'NONE');
#15 = PERSON_AND_ORGANIZATION_ROLE ( 'design_supplier' ) ;
#16 = PERSON_AND_ORGANIZATION ( #155, #112 ) ;
#17 = CIRCLE ( 'NONE', #179, 0.1999999999999960421 ) ;
#18 = DESIGN_CONTEXT ( 'detailed design', #57, 'design' ) ;
#19 = ORIENTED_EDGE ( 'NONE', *, *, #25, .F. ) ;
#20 =( GEOMETRIC_REPRESENTATION_CONTEXT ( 3 ) GLOBAL_UNCERTAINTY_ASSIGNED_CONTEXT ( ( #14 ) ) GLOBAL_UNIT_ASSIGNED_CONTEXT ( ( #89, #72, #6 ) ) REPRESENTATION_CONTEXT ( 'NONE', 'WORKASPACE' ) );
#21 = EDGE_LOOP ( 'NONE', ( #46 ) ) ;
#22 = DIRECTION ( 'NONE',  ( 4.275831445896958607E-31, 1.000000000000000000, 1.224646799147353207E-16 ) ) ;
#23 = AXIS2_PLACEMENT_3D ( 'NONE', #171, #32, #149 ) ;
#24 = VERTEX_POINT ( 'NONE', #52 ) ;
#25 = EDGE_CURVE ( 'NONE', #24, #24, #145, .T. ) ;
#26 = CARTESIAN_POINT ( 'NONE',  ( 0.0000000000000000000, 0.0000000000000000000, 0.0000000000000000000 ) ) ;
#27 = AXIS2_PLACEMENT_3D ( 'NONE', #186, #81, #140 ) ;
#28 = CARTESIAN_POINT ( 'NONE',  ( 0.0000000000000000000, 0.0000000000000000000, 0.0000000000000000000 ) ) ;
#29 = CALENDAR_DATE ( 2021, 6, 10 ) ;
#30 = COORDINATED_UNIVERSAL_TIME_OFFSET ( 1, 0, .AHEAD. ) ;
#31 = COORDINATED_UNIVERSAL_TIME_OFFSET ( 1, 0, .AHEAD. ) ;
#32 = DIRECTION ( 'NONE',  ( 0.0000000000000000000, 0.0000000000000000000, 1.000000000000000000 ) ) ;
#33 = ADVANCED_FACE ( 'NONE', ( #184 ), #68, .F. ) ;
#34 = ORIENTED_EDGE ( 'NONE', *, *, #25, .T. ) ;
#35 = DIRECTION ( 'NONE',  ( 0.0000000000000000000, 1.000000000000000000, 0.0000000000000000000 ) ) ;
#36 = EDGE_LOOP ( 'NONE', ( #129 ) ) ;
#37 = DIRECTION ( 'NONE',  ( -4.275831445896958607E-31, -1.000000000000000000, -1.224646799147353207E-16 ) ) ;
#38 = CC_DESIGN_PERSON_AND_ORGANIZATION_ASSIGNMENT ( #197, #182, ( #65 ) ) ;
#39 = CARTESIAN_POINT ( 'NONE',  ( 1.047444401652940007E-13, 0.09999999999999527323, 30.00000000000000000 ) ) ;
#40 = CARTESIAN_POINT ( 'NONE',  ( 4.031615381703228168E-16, -1.414100318299858979E-17, 0.1154700538379237890 ) ) ;
#41 = DIRECTION ( 'NONE',  ( 4.814824860968201737E-31, 1.000000000000000000, 1.355252715606912097E-16 ) ) ;
#42 = PLANE ( 'NONE',  #110 ) ;
#43 = PERSON_AND_ORGANIZATION ( #155, #112 ) ;
#44 = COORDINATED_UNIVERSAL_TIME_OFFSET ( 1, 0, .AHEAD. ) ;
#45 = DATE_AND_TIME ( #77, #135 ) ;
#46 = ORIENTED_EDGE ( 'NONE', *, *, #107, .T. ) ;
#47 = AXIS2_PLACEMENT_3D ( 'NONE', #177, #9, #37 ) ;
#48 = DIRECTION ( 'NONE',  ( 4.275831445896958607E-31, 1.000000000000000000, 1.224646799147353207E-16 ) ) ;
#49 = CARTESIAN_POINT ( 'NONE',  ( 1.043952920314096936E-13, -3.661693929450586610E-15, 29.90000000000000213 ) ) ;
#50 = CARTESIAN_POINT ( 'NONE',  ( 4.031615381703229154E-16, 0.1999999999999953204, 0.1154700538379238167 ) ) ;
#51 = PRODUCT ( '197', '197', '', ( #56 ) ) ;
#52 = CARTESIAN_POINT ( 'NONE',  ( 2.094888803305880013E-14, 0.1999999999999953204, 6.000000000000000000 ) ) ;
#53 = FACE_OUTER_BOUND ( 'NONE', #64, .T. ) ;
#54 = CONICAL_SURFACE ( 'NONE', #187, 0.09999999999999895084, 0.7853981633974688181 ) ;
#55 = FACE_OUTER_BOUND ( 'NONE', #157, .T. ) ;
#56 = MECHANICAL_CONTEXT ( 'NONE', #63, 'mechanical' ) ;
#57 = APPLICATION_CONTEXT ( 'configuration controlled 3d designs of mechanical parts and assemblies' ) ;
#58 = SHAPE_DEFINITION_REPRESENTATION ( #128, #3 ) ;
#59 = COORDINATED_UNIVERSAL_TIME_OFFSET ( 1, 0, .AHEAD. ) ;
#60 = AXIS2_PLACEMENT_3D ( 'NONE', #85, #1, #156 ) ;
#61 = APPROVAL_DATE_TIME ( #199, #125 ) ;
#62 = CC_DESIGN_PERSON_AND_ORGANIZATION_ASSIGNMENT ( #16, #15, ( #151 ) ) ;
#63 = APPLICATION_CONTEXT ( 'configuration controlled 3d designs of mechanical parts and assemblies' ) ;
#64 = EDGE_LOOP ( 'NONE', ( #202 ) ) ;
#65 = SECURITY_CLASSIFICATION ( '', '', #133 ) ;
#66 = CARTESIAN_POINT ( 'NONE',  ( 1.047444401652940007E-13, 7.498798913308658550E-34, 30.00000000000000000 ) ) ;
#67 = ORIENTED_EDGE ( 'NONE', *, *, #107, .F. ) ;
#68 = PLANE ( 'NONE',  #130 ) ;
#69 = EDGE_CURVE ( 'NONE', #178, #178, #121, .T. ) ;
#70 = FACE_OUTER_BOUND ( 'NONE', #139, .T. ) ;
#71 = VERTEX_POINT ( 'NONE', #50 ) ;
#72 =( NAMED_UNIT ( * ) PLANE_ANGLE_UNIT ( ) SI_UNIT ( $, .RADIAN. ) );
#73 = CLOSED_SHELL ( 'NONE', ( #176, #113, #147, #33 ) ) ;
#74 = DATE_AND_TIME ( #96, #170 ) ;
#75 = CC_DESIGN_APPROVAL ( #169, ( #143 ) ) ;
#76 = APPROVAL_STATUS ( 'not_yet_approved' ) ;
#77 = CALENDAR_DATE ( 2021, 6, 10 ) ;
#78 = DATE_TIME_ROLE ( 'classification_date' ) ;
#79 = AXIS2_PLACEMENT_3D ( 'NONE', #193, #104, #41 ) ;
#80 = EDGE_LOOP ( 'NONE', ( #98 ) ) ;
#81 = DIRECTION ( 'NONE',  ( -3.491481338843133355E-15, 1.224646799147353207E-16, -1.000000000000000000 ) ) ;
#82 = CC_DESIGN_PERSON_AND_ORGANIZATION_ASSIGNMENT ( #43, #172, ( #151 ) ) ;
#83 = LOCAL_TIME ( 10, 24, 20.00000000000000000, #108 ) ;
#84 = APPROVAL_PERSON_ORGANIZATION ( #153, #169, #111 ) ;
#85 = CARTESIAN_POINT ( 'NONE',  ( 2.094888803305880013E-14, -7.347880794884119736E-16, 6.000000000000000000 ) ) ;
#86 = PRODUCT_RELATED_PRODUCT_CATEGORY ( 'detail', '', ( #51 ) ) ;
#87 = EDGE_LOOP ( 'NONE', ( #34 ) ) ;
#88 = DIRECTION ( 'NONE',  ( 3.491481338843133355E-15, -1.224646799147353207E-16, 1.000000000000000000 ) ) ;
#89 =( LENGTH_UNIT ( ) NAMED_UNIT ( * ) SI_UNIT ( .MILLI., .METRE. ) );
#90 = FACE_BOUND ( 'NONE', #21, .T. ) ;
#91 = FACE_OUTER_BOUND ( 'NONE', #175, .T. ) ;
#92 = PERSON_AND_ORGANIZATION ( #155, #112 ) ;
#93 = CC_DESIGN_DATE_AND_TIME_ASSIGNMENT ( #122, #78, ( #65 ) ) ;
#94 = PERSON_AND_ORGANIZATION ( #155, #112 ) ;
#95 = APPROVAL_PERSON_ORGANIZATION ( #97, #125, #198 ) ;
#96 = CALENDAR_DATE ( 2021, 6, 10 ) ;
#97 = PERSON_AND_ORGANIZATION ( #155, #112 ) ;
#98 = ORIENTED_EDGE ( 'NONE', *, *, #123, .T. ) ;
#99 = EDGE_LOOP ( 'NONE', ( #67 ) ) ;
#100 = MANIFOLD_SOLID_BREP ( 'Corps-Déplacer/Copier1[2]', #124 ) ;
#101 = PLANE ( 'NONE',  #47 ) ;
#102 = LOCAL_TIME ( 10, 24, 20.00000000000000000, #59 ) ;
#103 = CARTESIAN_POINT ( 'NONE',  ( 2.094888803305880013E-14, 1.499759782661816896E-33, 6.000000000000000000 ) ) ;
#104 = DIRECTION ( 'NONE',  ( -3.491481338843133355E-15, 1.224646799147353207E-16, -1.000000000000000000 ) ) ;
#105 = CARTESIAN_POINT ( 'NONE',  ( 1.043952920314096936E-13, 0.1999999999999953204, 29.90000000000000213 ) ) ;
#106 = DIRECTION ( 'NONE',  ( -3.491481338843133355E-15, 1.224646799147353207E-16, -1.000000000000000000 ) ) ;
#107 = EDGE_CURVE ( 'NONE', #118, #118, #183, .T. ) ;
#108 = COORDINATED_UNIVERSAL_TIME_OFFSET ( 1, 0, .AHEAD. ) ;
#109 = CALENDAR_DATE ( 2021, 6, 10 ) ;
#110 = AXIS2_PLACEMENT_3D ( 'NONE', #103, #5, #166 ) ;
#111 = APPROVAL_ROLE ( '' ) ;
#112 = ORGANIZATION ( 'UNSPECIFIED', 'UNSPECIFIED', '' ) ;
#113 = ADVANCED_FACE ( 'NONE', ( #127, #164 ), #116, .T. ) ;
#114 = ORIENTED_EDGE ( 'NONE', *, *, #195, .T. ) ;
#115 = DIRECTION ( 'NONE',  ( -3.491481338843133355E-15, 1.224646799147353207E-16, -1.000000000000000000 ) ) ;
#116 = CYLINDRICAL_SURFACE ( 'NONE', #4, 0.1999999999999975131 ) ;
#117 = ADVANCED_FACE ( 'NONE', ( #189 ), #138, .T. ) ;
#118 = VERTEX_POINT ( 'NONE', #39 ) ;
#119 = DIRECTION ( 'NONE',  ( -4.814824860968201737E-31, -1.000000000000000000, -1.355252715606912097E-16 ) ) ;
#120 = DATE_TIME_ROLE ( 'creation_date' ) ;
#121 = CIRCLE ( 'NONE', #165, 0.1999999999999989841 ) ;
#122 = DATE_AND_TIME ( #194, #83 ) ;
#123 = EDGE_CURVE ( 'NONE', #71, #71, #141, .T. ) ;
#124 = CLOSED_SHELL ( 'NONE', ( #117, #161, #188 ) ) ;
#125 = APPROVAL ( #13, 'UNSPECIFIED' ) ;
#126 = DIRECTION ( 'NONE',  ( -3.491481338843133355E-15, 1.224646799147353207E-16, -1.000000000000000000 ) ) ;
#127 = FACE_OUTER_BOUND ( 'NONE', #36, .T. ) ;
#128 = PRODUCT_DEFINITION_SHAPE ( 'NONE', 'NONE',  #143 ) ;
#129 = ORIENTED_EDGE ( 'NONE', *, *, #195, .F. ) ;
#130 = AXIS2_PLACEMENT_3D ( 'NONE', #66, #126, #48 ) ;
#131 = DIRECTION ( 'NONE',  ( 0.0000000000000000000, 1.000000000000000000, 0.0000000000000000000 ) ) ;
#132 = DIRECTION ( 'NONE',  ( -3.491481338843133355E-15, 1.224646799147353207E-16, -1.000000000000000000 ) ) ;
#133 = SECURITY_CLASSIFICATION_LEVEL ( 'unclassified' ) ;
#134 = APPROVAL_DATE_TIME ( #11, #152 ) ;
#135 = LOCAL_TIME ( 10, 24, 20.00000000000000000, #30 ) ;
#136 = APPROVAL_STATUS ( 'not_yet_approved' ) ;
#137 = APPROVAL_DATE_TIME ( #45, #169 ) ;
#138 = CONICAL_SURFACE ( 'NONE', #196, 0.1999999999999953482, 1.047197551196592746 ) ;
#139 = EDGE_LOOP ( 'NONE', ( #114 ) ) ;
#140 = DIRECTION ( 'NONE',  ( 0.0000000000000000000, 1.000000000000000000, 0.0000000000000000000 ) ) ;
#141 = CIRCLE ( 'NONE', #79, 0.1999999999999953482 ) ;
#142 = CARTESIAN_POINT ( 'NONE',  ( 1.047444401652940007E-13, -3.673940397442059178E-15, 30.00000000000000000 ) ) ;
#143 = PRODUCT_DEFINITION ( 'UNKNOWN', '', #151, #18 ) ;
#144 = DIRECTION ( 'NONE',  ( -3.491481338843133355E-15, 1.224646799147353207E-16, -1.000000000000000000 ) ) ;
#145 = CIRCLE ( 'NONE', #60, 0.1999999999999960421 ) ;
#146 = DIRECTION ( 'NONE',  ( 0.0000000000000000000, 1.000000000000000000, 0.0000000000000000000 ) ) ;
#147 = ADVANCED_FACE ( 'NONE', ( #53, #90 ), #54, .T. ) ;
#148 = DIRECTION ( 'NONE',  ( 4.275831445896958607E-31, 1.000000000000000000, 1.224646799147353207E-16 ) ) ;
#149 = DIRECTION ( 'NONE',  ( 1.000000000000000000, 0.0000000000000000000, 0.0000000000000000000 ) ) ;
#150 = APPLICATION_PROTOCOL_DEFINITION ( 'international standard', 'config_control_design', 1994, #57 ) ;
#151 = PRODUCT_DEFINITION_FORMATION_WITH_SPECIFIED_SOURCE ( 'ANY', '', #51, .NOT_KNOWN. ) ;
#152 = APPROVAL ( #76, 'UNSPECIFIED' ) ;
#153 = PERSON_AND_ORGANIZATION ( #155, #112 ) ;
#154 = PERSON_AND_ORGANIZATION_ROLE ( 'creator' ) ;
#155 = PERSON ( 'UNSPECIFIED', 'UNSPECIFIED', 'UNSPECIFIED', ('UNSPECIFIED'), ('UNSPECIFIED'), ('UNSPECIFIED') ) ;
#156 = DIRECTION ( 'NONE',  ( 0.0000000000000000000, 1.000000000000000000, 0.0000000000000000000 ) ) ;
#157 = EDGE_LOOP ( 'NONE', ( #19 ) ) ;
#158 = LOCAL_TIME ( 10, 24, 20.00000000000000000, #44 ) ;
#159 = CC_DESIGN_PERSON_AND_ORGANIZATION_ASSIGNMENT ( #181, #201, ( #51 ) ) ;
#160 = ORIENTED_EDGE ( 'NONE', *, *, #123, .F. ) ;
#161 = ADVANCED_FACE ( 'NONE', ( #91, #190 ), #163, .T. ) ;
#162 = CARTESIAN_POINT ( 'NONE',  ( 2.094888803305880013E-14, 0.1999999999999953204, 6.000000000000000000 ) ) ;
#163 = CYLINDRICAL_SURFACE ( 'NONE', #200, 0.1999999999999957090 ) ;
#164 = FACE_OUTER_BOUND ( 'NONE', #173, .T. ) ;
#165 = AXIS2_PLACEMENT_3D ( 'NONE', #49, #115, #35 ) ;
#166 = DIRECTION ( 'NONE',  ( -4.275831445896958607E-31, -1.000000000000000000, -1.224646799147353207E-16 ) ) ;
#167 = APPROVAL_ROLE ( '' ) ;
#168 = MANIFOLD_SOLID_BREP ( 'Corps-Déplacer/Copier1[1]', #73 ) ;
#169 = APPROVAL ( #136, 'UNSPECIFIED' ) ;
#170 = LOCAL_TIME ( 10, 24, 20.00000000000000000, #31 ) ;
#171 = CARTESIAN_POINT ( 'NONE',  ( 0.0000000000000000000, 0.0000000000000000000, 0.0000000000000000000 ) ) ;
#172 = PERSON_AND_ORGANIZATION_ROLE ( 'creator' ) ;
#173 = EDGE_LOOP ( 'NONE', ( #2 ) ) ;
#174 = CC_DESIGN_SECURITY_CLASSIFICATION ( #65, ( #151 ) ) ;
#175 = EDGE_LOOP ( 'NONE', ( #160 ) ) ;
#176 = ADVANCED_FACE ( 'NONE', ( #70 ), #101, .F. ) ;
#177 = CARTESIAN_POINT ( 'NONE',  ( 2.094888803305880013E-14, 1.499759782661816896E-33, 6.000000000000000000 ) ) ;
#178 = VERTEX_POINT ( 'NONE', #105 ) ;
#179 = AXIS2_PLACEMENT_3D ( 'NONE', #10, #132, #131 ) ;
#180 = DIRECTION ( 'NONE',  ( -3.491481338843133355E-15, 1.224646799147353207E-16, -1.000000000000000000 ) ) ;
#181 = PERSON_AND_ORGANIZATION ( #155, #112 ) ;
#182 = PERSON_AND_ORGANIZATION_ROLE ( 'classification_officer' ) ;
#183 = CIRCLE ( 'NONE', #27, 0.09999999999999895084 ) ;
#184 = FACE_OUTER_BOUND ( 'NONE', #99, .T. ) ;
#185 = CC_DESIGN_PERSON_AND_ORGANIZATION_ASSIGNMENT ( #94, #154, ( #143 ) ) ;
#186 = CARTESIAN_POINT ( 'NONE',  ( 1.047444401652940007E-13, -3.673940397442059178E-15, 30.00000000000000000 ) ) ;
#187 = AXIS2_PLACEMENT_3D ( 'NONE', #142, #144, #146 ) ;
#188 = ADVANCED_FACE ( 'NONE', ( #55 ), #42, .T. ) ;
#189 = FACE_OUTER_BOUND ( 'NONE', #80, .T. ) ;
#190 = FACE_OUTER_BOUND ( 'NONE', #87, .T. ) ;
#191 = APPROVAL_PERSON_ORGANIZATION ( #92, #152, #167 ) ;
#192 = APPLICATION_PROTOCOL_DEFINITION ( 'international standard', 'config_control_design', 1994, #63 ) ;
#193 = CARTESIAN_POINT ( 'NONE',  ( 4.031615381703228168E-16, -1.414100318299858979E-17, 0.1154700538379237890 ) ) ;
#194 = CALENDAR_DATE ( 2021, 6, 10 ) ;
#195 = EDGE_CURVE ( 'NONE', #7, #7, #17, .T. ) ;
#196 = AXIS2_PLACEMENT_3D ( 'NONE', #40, #88, #119 ) ;
#197 = PERSON_AND_ORGANIZATION ( #155, #112 ) ;
#198 = APPROVAL_ROLE ( '' ) ;
#199 = DATE_AND_TIME ( #109, #102 ) ;
#200 = AXIS2_PLACEMENT_3D ( 'NONE', #26, #180, #148 ) ;
#201 = PERSON_AND_ORGANIZATION_ROLE ( 'design_owner' ) ;
#202 = ORIENTED_EDGE ( 'NONE', *, *, #69, .F. ) ;
#203 = CC_DESIGN_DATE_AND_TIME_ASSIGNMENT ( #74, #120, ( #143 ) ) ;
ENDSEC;
END-ISO-10303-21;
