ISO-10303-21;
HEADER;
FILE_DESCRIPTION (( 'STEP AP203' ),
    '1' );
FILE_NAME ('19337.step',
    '2021-10-07T13:46:27',
    ( '' ),
    ( '' ),
    'SwSTEP 2.0',
    'SolidWorks 2019',
    '' );
FILE_SCHEMA (( 'CONFIG_CONTROL_DESIGN' ));
ENDSEC;

DATA;
#1 = CALENDAR_DATE ( 2021, 7, 10 ) ;
#2 = APPLICATION_PROTOCOL_DEFINITION ( 'international standard', 'config_control_design', 1994, #45 ) ;
#3 = AXIS2_PLACEMENT_3D ( 'NONE', #46, #187, #115 ) ;
#4 = MANIFOLD_SOLID_BREP ( 'Corps-Déplacer/Copier1[2]', #21 ) ;
#5 = PERSON_AND_ORGANIZATION ( #16, #77 ) ;
#6 = CIRCLE ( 'NONE', #218, 0.5750000000000019540 ) ;
#7 = PRODUCT ( '19337', '19337', '', ( #55 ) ) ;
#8 = FACE_OUTER_BOUND ( 'NONE', #31, .T. ) ;
#9 = CALENDAR_DATE ( 2021, 7, 10 ) ;
#10 = EDGE_LOOP ( 'NONE', ( #30 ) ) ;
#11 = ORIENTED_EDGE ( 'NONE', *, *, #178, .T. ) ;
#12 = LOCAL_TIME ( 15, 46, 27.00000000000000000, #78 ) ;
#13 = ORIENTED_EDGE ( 'NONE', *, *, #56, .F. ) ;
#14 = CARTESIAN_POINT ( 'NONE',  ( 3.142333204958820651E-14, -1.102182119232617911E-15, 9.000000000000001776 ) ) ;
#15 = DIRECTION ( 'NONE',  ( 4.275831445896958607E-31, 1.000000000000000000, 1.224646799147353207E-16 ) ) ;
#16 = PERSON ( 'UNSPECIFIED', 'UNSPECIFIED', 'UNSPECIFIED', ('UNSPECIFIED'), ('UNSPECIFIED'), ('UNSPECIFIED') ) ;
#17 = DIRECTION ( 'NONE',  ( 0.0000000000000000000, -1.000000000000000000, 0.0000000000000000000 ) ) ;
#18 = DIRECTION ( 'NONE',  ( 4.275831445896958607E-31, 1.000000000000000000, 1.224646799147353207E-16 ) ) ;
#19 = ADVANCED_FACE ( 'NONE', ( #133 ), #214, .T. ) ;
#20 = CARTESIAN_POINT ( 'NONE',  ( 1.040461438975253740E-13, -3.649447461459112464E-15, 29.80000000000000071 ) ) ;
#21 = CLOSED_SHELL ( 'NONE', ( #19, #158, #109 ) ) ;
#22 = DATE_AND_TIME ( #145, #110 ) ;
#23 = AXIS2_PLACEMENT_3D ( 'NONE', #170, #139, #17 ) ;
#24 = ADVANCED_FACE ( 'NONE', ( #8, #195 ), #28, .T. ) ;
#25 = APPROVAL_STATUS ( 'not_yet_approved' ) ;
#26 = CARTESIAN_POINT ( 'NONE',  ( 1.206288842183777154E-15, -4.231091694498388648E-17, 0.3454948559408508313 ) ) ;
#27 = COORDINATED_UNIVERSAL_TIME_OFFSET ( 1, 0, .AHEAD. ) ;
#28 = CONICAL_SURFACE ( 'NONE', #107, 0.5500000000000001554, 0.7853981633974510546 ) ;
#29 = ADVANCED_FACE ( 'NONE', ( #186, #49 ), #58, .T. ) ;
#30 = ORIENTED_EDGE ( 'NONE', *, *, #126, .F. ) ;
#31 = EDGE_LOOP ( 'NONE', ( #79 ) ) ;
#32 = AXIS2_PLACEMENT_3D ( 'NONE', #86, #120, #15 ) ;
#33 = FACE_OUTER_BOUND ( 'NONE', #210, .T. ) ;
#34 = VERTEX_POINT ( 'NONE', #103 ) ;
#35 = DIRECTION ( 'NONE',  ( -4.275831445896958607E-31, -1.000000000000000000, -1.224646799147353207E-16 ) ) ;
#36 = DIRECTION ( 'NONE',  ( 0.0000000000000000000, 1.000000000000000000, 0.0000000000000000000 ) ) ;
#37 = CARTESIAN_POINT ( 'NONE',  ( 0.0000000000000000000, 0.0000000000000000000, 0.0000000000000000000 ) ) ;
#38 = PERSON_AND_ORGANIZATION ( #16, #77 ) ;
#39 = LOCAL_TIME ( 15, 46, 27.00000000000000000, #121 ) ;
#40 = APPROVAL_DATE_TIME ( #208, #89 ) ;
#41 = PRODUCT_DEFINITION_FORMATION_WITH_SPECIFIED_SOURCE ( 'ANY', '', #7, .NOT_KNOWN. ) ;
#42 = APPROVAL ( #25, 'UNSPECIFIED' ) ;
#43 = PERSON_AND_ORGANIZATION_ROLE ( 'creator' ) ;
#44 = EDGE_LOOP ( 'NONE', ( #213 ) ) ;
#45 = APPLICATION_CONTEXT ( 'configuration controlled 3d designs of mechanical parts and assemblies' ) ;
#46 = CARTESIAN_POINT ( 'NONE',  ( 1.206288842183777154E-15, -4.231091694498388648E-17, 0.3454948559408508313 ) ) ;
#47 = CLOSED_SHELL ( 'NONE', ( #98, #29, #211, #24, #176 ) ) ;
#48 = PLANE ( 'NONE',  #155 ) ;
#49 = FACE_OUTER_BOUND ( 'NONE', #63, .T. ) ;
#50 = DIRECTION ( 'NONE',  ( 4.275831445896959482E-31, 1.000000000000000000, 1.224646799147353207E-16 ) ) ;
#51 = AXIS2_PLACEMENT_3D ( 'NONE', #171, #221, #105 ) ;
#52 = APPROVAL ( #191, 'UNSPECIFIED' ) ;
#53 = FACE_OUTER_BOUND ( 'NONE', #128, .T. ) ;
#54 = DATE_TIME_ROLE ( 'creation_date' ) ;
#55 = MECHANICAL_CONTEXT ( 'NONE', #45, 'mechanical' ) ;
#56 = EDGE_CURVE ( 'NONE', #118, #118, #100, .T. ) ;
#57 =( LENGTH_UNIT ( ) NAMED_UNIT ( * ) SI_UNIT ( .MILLI., .METRE. ) );
#58 = CONICAL_SURFACE ( 'NONE', #23, 0.7499999999999975575, 0.5235987755982922653 ) ;
#59 = ORIENTED_EDGE ( 'NONE', *, *, #113, .T. ) ;
#60 = COORDINATED_UNIVERSAL_TIME_OFFSET ( 1, 0, .AHEAD. ) ;
#61 = ORIENTED_EDGE ( 'NONE', *, *, #75, .T. ) ;
#62 = VERTEX_POINT ( 'NONE', #112 ) ;
#63 = EDGE_LOOP ( 'NONE', ( #114 ) ) ;
#64 = CIRCLE ( 'NONE', #205, 0.5500000000000001554 ) ;
#65 = EDGE_LOOP ( 'NONE', ( #59 ) ) ;
#66 = ORIENTED_EDGE ( 'NONE', *, *, #75, .F. ) ;
#67 = CARTESIAN_POINT ( 'NONE',  ( 3.142333204958820651E-14, -1.102182119232617911E-15, 9.000000000000001776 ) ) ;
#68 = VERTEX_POINT ( 'NONE', #135 ) ;
#69 = DIRECTION ( 'NONE',  ( -3.491481338843133355E-15, 1.224646799147353207E-16, -1.000000000000000000 ) ) ;
#70 = VERTEX_POINT ( 'NONE', #106 ) ;
#71 = PERSON_AND_ORGANIZATION_ROLE ( 'design_owner' ) ;
#72 = DATE_AND_TIME ( #1, #123 ) ;
#73 = PERSON_AND_ORGANIZATION ( #16, #77 ) ;
#74 = AXIS2_PLACEMENT_3D ( 'NONE', #26, #95, #163 ) ;
#75 = EDGE_CURVE ( 'NONE', #70, #70, #6, .T. ) ;
#76 = COORDINATED_UNIVERSAL_TIME_OFFSET ( 1, 0, .AHEAD. ) ;
#77 = ORGANIZATION ( 'UNSPECIFIED', 'UNSPECIFIED', '' ) ;
#78 = COORDINATED_UNIVERSAL_TIME_OFFSET ( 1, 0, .AHEAD. ) ;
#79 = ORIENTED_EDGE ( 'NONE', *, *, #161, .F. ) ;
#80 = DATE_AND_TIME ( #9, #143 ) ;
#81 = MANIFOLD_SOLID_BREP ( 'Corps-Déplacer/Copier1[1]', #47 ) ;
#82 = UNCERTAINTY_MEASURE_WITH_UNIT (LENGTH_MEASURE( 1.000000000000000082E-05 ), #57, 'distance_accuracy_value', 'NONE');
#83 = AXIS2_PLACEMENT_3D ( 'NONE', #20, #172, #219 ) ;
#84 = PRODUCT_DEFINITION ( 'UNKNOWN', '', #41, #165 ) ;
#85 = ADVANCED_BREP_SHAPE_REPRESENTATION ( '19337', ( #81, #4, #209 ), #96 ) ;
#86 = CARTESIAN_POINT ( 'NONE',  ( 0.0000000000000000000, 0.0000000000000000000, 0.0000000000000000000 ) ) ;
#87 = DIRECTION ( 'NONE',  ( -3.491481338843133355E-15, 1.224646799147353207E-16, -1.000000000000000000 ) ) ;
#88 = CARTESIAN_POINT ( 'NONE',  ( 1.047444401652940007E-13, -3.673940397442059178E-15, 30.00000000000000000 ) ) ;
#89 = APPROVAL ( #127, 'UNSPECIFIED' ) ;
#90 = CARTESIAN_POINT ( 'NONE',  ( 1.206288842183777351E-15, 0.5749999999999997335, 0.3454948559408508868 ) ) ;
#91 = APPLICATION_PROTOCOL_DEFINITION ( 'international standard', 'config_control_design', 1994, #215 ) ;
#92 = AXIS2_PLACEMENT_3D ( 'NONE', #67, #137, #200 ) ;
#93 = AXIS2_PLACEMENT_3D ( 'NONE', #202, #152, #169 ) ;
#94 = CC_DESIGN_DATE_AND_TIME_ASSIGNMENT ( #72, #122, ( #97 ) ) ;
#95 = DIRECTION ( 'NONE',  ( 3.491481338843133355E-15, -1.224646799147353207E-16, 1.000000000000000000 ) ) ;
#96 =( GEOMETRIC_REPRESENTATION_CONTEXT ( 3 ) GLOBAL_UNCERTAINTY_ASSIGNED_CONTEXT ( ( #82 ) ) GLOBAL_UNIT_ASSIGNED_CONTEXT ( ( #57, #129, #159 ) ) REPRESENTATION_CONTEXT ( 'NONE', 'WORKASPACE' ) );
#97 = SECURITY_CLASSIFICATION ( '', '', #108 ) ;
#98 = ADVANCED_FACE ( 'NONE', ( #33 ), #102, .F. ) ;
#99 = ORIENTED_EDGE ( 'NONE', *, *, #113, .F. ) ;
#100 = CIRCLE ( 'NONE', #3, 0.5749999999999997335 ) ;
#101 = PRODUCT_RELATED_PRODUCT_CATEGORY ( 'detail', '', ( #7 ) ) ;
#102 = PLANE ( 'NONE',  #148 ) ;
#103 = CARTESIAN_POINT ( 'NONE',  ( 1.040461438975253740E-13, 0.7499999999999963363, 29.80000000000000071 ) ) ;
#104 = DIRECTION ( 'NONE',  ( 0.0000000000000000000, 1.000000000000000000, 0.0000000000000000000 ) ) ;
#105 = DIRECTION ( 'NONE',  ( -4.275831445896958607E-31, -1.000000000000000000, -1.224646799147353207E-16 ) ) ;
#106 = CARTESIAN_POINT ( 'NONE',  ( 3.142333204958820651E-14, 0.5750000000000008438, 9.000000000000001776 ) ) ;
#107 = AXIS2_PLACEMENT_3D ( 'NONE', #117, #150, #185 ) ;
#108 = SECURITY_CLASSIFICATION_LEVEL ( 'unclassified' ) ;
#109 = ADVANCED_FACE ( 'NONE', ( #199 ), #216, .T. ) ;
#110 = LOCAL_TIME ( 15, 46, 27.00000000000000000, #60 ) ;
#111 = APPROVAL_ROLE ( '' ) ;
#112 = CARTESIAN_POINT ( 'NONE',  ( 3.142333204958820651E-14, 0.5750000000000008438, 9.000000000000001776 ) ) ;
#113 = EDGE_CURVE ( 'NONE', #149, #149, #64, .T. ) ;
#114 = ORIENTED_EDGE ( 'NONE', *, *, #126, .T. ) ;
#115 = DIRECTION ( 'NONE',  ( 3.349443381543020284E-31, 1.000000000000000000, 9.427844978134825131E-17 ) ) ;
#116 = FACE_OUTER_BOUND ( 'NONE', #131, .T. ) ;
#117 = CARTESIAN_POINT ( 'NONE',  ( 1.047444401652940007E-13, -3.673940397442059178E-15, 30.00000000000000000 ) ) ;
#118 = VERTEX_POINT ( 'NONE', #90 ) ;
#119 = CC_DESIGN_PERSON_AND_ORGANIZATION_ASSIGNMENT ( #142, #71, ( #7 ) ) ;
#120 = DIRECTION ( 'NONE',  ( -3.491481338843133355E-15, 1.224646799147353207E-16, -1.000000000000000000 ) ) ;
#121 = COORDINATED_UNIVERSAL_TIME_OFFSET ( 1, 0, .AHEAD. ) ;
#122 = DATE_TIME_ROLE ( 'classification_date' ) ;
#123 = LOCAL_TIME ( 15, 46, 27.00000000000000000, #76 ) ;
#124 = CC_DESIGN_DATE_AND_TIME_ASSIGNMENT ( #194, #54, ( #84 ) ) ;
#125 = CC_DESIGN_APPROVAL ( #52, ( #97 ) ) ;
#126 = EDGE_CURVE ( 'NONE', #68, #68, #160, .T. ) ;
#127 = APPROVAL_STATUS ( 'not_yet_approved' ) ;
#128 = EDGE_LOOP ( 'NONE', ( #13 ) ) ;
#129 =( NAMED_UNIT ( * ) PLANE_ANGLE_UNIT ( ) SI_UNIT ( $, .RADIAN. ) );
#130 = APPROVAL_PERSON_ORGANIZATION ( #5, #89, #111 ) ;
#131 = EDGE_LOOP ( 'NONE', ( #181 ) ) ;
#132 = CC_DESIGN_PERSON_AND_ORGANIZATION_ASSIGNMENT ( #177, #162, ( #97 ) ) ;
#133 = FACE_OUTER_BOUND ( 'NONE', #212, .T. ) ;
#134 = CYLINDRICAL_SURFACE ( 'NONE', #190, 0.7499999999999986677 ) ;
#135 = CARTESIAN_POINT ( 'NONE',  ( 3.248163108728530778E-14, 0.7499999999999963363, 9.303108891324551877 ) ) ;
#136 = DIRECTION ( 'NONE',  ( 3.491481338843133355E-15, -1.224646799147353207E-16, 1.000000000000000000 ) ) ;
#137 = DIRECTION ( 'NONE',  ( -3.491481338843133355E-15, 1.224646799147353207E-16, -1.000000000000000000 ) ) ;
#138 = CC_DESIGN_APPROVAL ( #89, ( #41 ) ) ;
#139 = DIRECTION ( 'NONE',  ( 3.491481338843133355E-15, -1.224646799147353207E-16, 1.000000000000000000 ) ) ;
#140 = APPROVAL_ROLE ( '' ) ;
#141 = PERSON_AND_ORGANIZATION ( #16, #77 ) ;
#142 = PERSON_AND_ORGANIZATION ( #16, #77 ) ;
#143 = LOCAL_TIME ( 15, 46, 27.00000000000000000, #27 ) ;
#144 = APPROVAL_ROLE ( '' ) ;
#145 = CALENDAR_DATE ( 2021, 7, 10 ) ;
#146 = EDGE_LOOP ( 'NONE', ( #11 ) ) ;
#147 = APPROVAL_DATE_TIME ( #80, #52 ) ;
#148 = AXIS2_PLACEMENT_3D ( 'NONE', #217, #136, #35 ) ;
#149 = VERTEX_POINT ( 'NONE', #196 ) ;
#150 = DIRECTION ( 'NONE',  ( -3.491481338843133355E-15, 1.224646799147353207E-16, -1.000000000000000000 ) ) ;
#151 = CC_DESIGN_SECURITY_CLASSIFICATION ( #97, ( #41 ) ) ;
#152 = DIRECTION ( 'NONE',  ( -3.491481338843133355E-15, 1.224646799147353207E-16, -1.000000000000000000 ) ) ;
#153 = DIRECTION ( 'NONE',  ( -3.491481338843133355E-15, 1.224646799147353207E-16, -1.000000000000000000 ) ) ;
#154 = FACE_OUTER_BOUND ( 'NONE', #10, .T. ) ;
#155 = AXIS2_PLACEMENT_3D ( 'NONE', #188, #69, #18 ) ;
#156 = PERSON_AND_ORGANIZATION ( #16, #77 ) ;
#157 = CARTESIAN_POINT ( 'NONE',  ( 0.0000000000000000000, 0.0000000000000000000, 0.0000000000000000000 ) ) ;
#158 = ADVANCED_FACE ( 'NONE', ( #53, #174 ), #220, .T. ) ;
#159 =( NAMED_UNIT ( * ) SI_UNIT ( $, .STERADIAN. ) SOLID_ANGLE_UNIT ( ) );
#160 = CIRCLE ( 'NONE', #93, 0.7499999999999975575 ) ;
#161 = EDGE_CURVE ( 'NONE', #34, #34, #179, .T. ) ;
#162 = PERSON_AND_ORGANIZATION_ROLE ( 'classification_officer' ) ;
#163 = DIRECTION ( 'NONE',  ( -3.349443381543020284E-31, -1.000000000000000000, -9.427844978134825131E-17 ) ) ;
#164 = DIRECTION ( 'NONE',  ( 1.000000000000000000, 0.0000000000000000000, 0.0000000000000000000 ) ) ;
#165 = DESIGN_CONTEXT ( 'detailed design', #215, 'design' ) ;
#166 = EDGE_LOOP ( 'NONE', ( #66 ) ) ;
#167 = SHAPE_DEFINITION_REPRESENTATION ( #206, #85 ) ;
#168 = APPROVAL_PERSON_ORGANIZATION ( #141, #52, #144 ) ;
#169 = DIRECTION ( 'NONE',  ( 0.0000000000000000000, 1.000000000000000000, 0.0000000000000000000 ) ) ;
#170 = CARTESIAN_POINT ( 'NONE',  ( 3.248163108728530778E-14, -1.139302252587989331E-15, 9.303108891324551877 ) ) ;
#171 = CARTESIAN_POINT ( 'NONE',  ( 3.142333204958820651E-14, -2.081305458509238981E-31, 9.000000000000001776 ) ) ;
#172 = DIRECTION ( 'NONE',  ( -3.491481338843133355E-15, 1.224646799147353207E-16, -1.000000000000000000 ) ) ;
#173 = CC_DESIGN_PERSON_AND_ORGANIZATION_ASSIGNMENT ( #182, #175, ( #41 ) ) ;
#174 = FACE_OUTER_BOUND ( 'NONE', #146, .T. ) ;
#175 = PERSON_AND_ORGANIZATION_ROLE ( 'design_supplier' ) ;
#176 = ADVANCED_FACE ( 'NONE', ( #198 ), #48, .F. ) ;
#177 = PERSON_AND_ORGANIZATION ( #16, #77 ) ;
#178 = EDGE_CURVE ( 'NONE', #62, #62, #201, .T. ) ;
#179 = CIRCLE ( 'NONE', #83, 0.7500000000000000000 ) ;
#180 = CALENDAR_DATE ( 2021, 7, 10 ) ;
#181 = ORIENTED_EDGE ( 'NONE', *, *, #161, .T. ) ;
#182 = PERSON_AND_ORGANIZATION ( #16, #77 ) ;
#183 = ORIENTED_EDGE ( 'NONE', *, *, #56, .T. ) ;
#184 = DIRECTION ( 'NONE',  ( -3.491481338843133355E-15, 1.224646799147353207E-16, -1.000000000000000000 ) ) ;
#185 = DIRECTION ( 'NONE',  ( 0.0000000000000000000, 1.000000000000000000, 0.0000000000000000000 ) ) ;
#186 = FACE_BOUND ( 'NONE', #166, .T. ) ;
#187 = DIRECTION ( 'NONE',  ( -3.491481338843133355E-15, 1.224646799147353207E-16, -1.000000000000000000 ) ) ;
#188 = CARTESIAN_POINT ( 'NONE',  ( 1.047444401652940007E-13, 4.124339402320053683E-33, 30.00000000000000000 ) ) ;
#189 = CALENDAR_DATE ( 2021, 7, 10 ) ;
#190 = AXIS2_PLACEMENT_3D ( 'NONE', #37, #87, #50 ) ;
#191 = APPROVAL_STATUS ( 'not_yet_approved' ) ;
#192 = PERSON_AND_ORGANIZATION_ROLE ( 'creator' ) ;
#193 = EDGE_LOOP ( 'NONE', ( #99 ) ) ;
#194 = DATE_AND_TIME ( #180, #12 ) ;
#195 = FACE_BOUND ( 'NONE', #65, .T. ) ;
#196 = CARTESIAN_POINT ( 'NONE',  ( 1.047444401652940007E-13, 0.5499999999999964917, 30.00000000000000000 ) ) ;
#197 = APPROVAL_PERSON_ORGANIZATION ( #156, #42, #140 ) ;
#198 = FACE_OUTER_BOUND ( 'NONE', #193, .T. ) ;
#199 = FACE_OUTER_BOUND ( 'NONE', #44, .T. ) ;
#200 = DIRECTION ( 'NONE',  ( 0.0000000000000000000, 1.000000000000000000, 0.0000000000000000000 ) ) ;
#201 = CIRCLE ( 'NONE', #92, 0.5750000000000019540 ) ;
#202 = CARTESIAN_POINT ( 'NONE',  ( 3.248163108728530778E-14, -1.139302252587989331E-15, 9.303108891324551877 ) ) ;
#203 = APPROVAL_DATE_TIME ( #22, #42 ) ;
#204 = DIRECTION ( 'NONE',  ( 0.0000000000000000000, 0.0000000000000000000, 1.000000000000000000 ) ) ;
#205 = AXIS2_PLACEMENT_3D ( 'NONE', #88, #153, #36 ) ;
#206 = PRODUCT_DEFINITION_SHAPE ( 'NONE', 'NONE',  #84 ) ;
#207 = CC_DESIGN_PERSON_AND_ORGANIZATION_ASSIGNMENT ( #38, #192, ( #41 ) ) ;
#208 = DATE_AND_TIME ( #189, #39 ) ;
#209 = AXIS2_PLACEMENT_3D ( 'NONE', #157, #204, #164 ) ;
#210 = EDGE_LOOP ( 'NONE', ( #61 ) ) ;
#211 = ADVANCED_FACE ( 'NONE', ( #154, #116 ), #134, .T. ) ;
#212 = EDGE_LOOP ( 'NONE', ( #183 ) ) ;
#213 = ORIENTED_EDGE ( 'NONE', *, *, #178, .F. ) ;
#214 = CONICAL_SURFACE ( 'NONE', #74, 0.5749999999999997335, 1.029744258676649649 ) ;
#215 = APPLICATION_CONTEXT ( 'configuration controlled 3d designs of mechanical parts and assemblies' ) ;
#216 = PLANE ( 'NONE',  #51 ) ;
#217 = CARTESIAN_POINT ( 'NONE',  ( 3.142333204958820651E-14, -2.081305458509238981E-31, 9.000000000000001776 ) ) ;
#218 = AXIS2_PLACEMENT_3D ( 'NONE', #14, #184, #104 ) ;
#219 = DIRECTION ( 'NONE',  ( 0.0000000000000000000, 1.000000000000000000, 0.0000000000000000000 ) ) ;
#220 = CYLINDRICAL_SURFACE ( 'NONE', #32, 0.5750000000000008438 ) ;
#221 = DIRECTION ( 'NONE',  ( 3.491481338843133355E-15, -1.224646799147353207E-16, 1.000000000000000000 ) ) ;
#222 = CC_DESIGN_PERSON_AND_ORGANIZATION_ASSIGNMENT ( #73, #43, ( #84 ) ) ;
#223 = CC_DESIGN_APPROVAL ( #42, ( #84 ) ) ;
ENDSEC;
END-ISO-10303-21;
