ISO-10303-21;
HEADER;
FILE_DESCRIPTION (( 'STEP AP203' ),
    '1' );
FILE_NAME ('193.step',
    '2021-10-08T05:53:44',
    ( '' ),
    ( '' ),
    'SwSTEP 2.0',
    'SolidWorks 2019',
    '' );
FILE_SCHEMA (( 'CONFIG_CONTROL_DESIGN' ));
ENDSEC;

DATA;
#1 = FACE_OUTER_BOUND ( 'NONE', #129, .T. ) ;
#2 = CONICAL_SURFACE ( 'NONE', #190, 0.8000000000000009326, 0.7853981633974512766 ) ;
#3 = FACE_OUTER_BOUND ( 'NONE', #33, .T. ) ;
#4 =( NAMED_UNIT ( * ) PLANE_ANGLE_UNIT ( ) SI_UNIT ( $, .RADIAN. ) );
#5 = PERSON_AND_ORGANIZATION ( #146, #19 ) ;
#6 = AXIS2_PLACEMENT_3D ( 'NONE', #105, #206, #207 ) ;
#7 = PERSON_AND_ORGANIZATION ( #146, #19 ) ;
#8 = COORDINATED_UNIVERSAL_TIME_OFFSET ( 1, 0, .AHEAD. ) ;
#9 = CC_DESIGN_PERSON_AND_ORGANIZATION_ASSIGNMENT ( #211, #75, ( #178 ) ) ;
#10 = CC_DESIGN_APPROVAL ( #193, ( #178 ) ) ;
#11 = ORIENTED_EDGE ( 'NONE', *, *, #214, .T. ) ;
#12 = DIRECTION ( 'NONE',  ( -3.491481338843133355E-15, 1.224646799147353207E-16, -1.000000000000000000 ) ) ;
#13 = FACE_OUTER_BOUND ( 'NONE', #101, .T. ) ;
#14 = FACE_OUTER_BOUND ( 'NONE', #141, .T. ) ;
#15 = FACE_BOUND ( 'NONE', #44, .T. ) ;
#16 = VERTEX_POINT ( 'NONE', #50 ) ;
#17 = CARTESIAN_POINT ( 'NONE',  ( 4.189777606611760026E-14, -1.469576158976823947E-15, 12.00000000000000000 ) ) ;
#18 = ADVANCED_FACE ( 'NONE', ( #14, #100 ), #82, .T. ) ;
#19 = ORGANIZATION ( 'UNSPECIFIED', 'UNSPECIFIED', '' ) ;
#20 = CARTESIAN_POINT ( 'NONE',  ( 4.220014721974533807E-14, 0.9999999999999954481, 12.08660254037843984 ) ) ;
#21 = CARTESIAN_POINT ( 'NONE',  ( 1.326762908760390423E-13, 5.999039130647367482E-33, 38.00000000000000000 ) ) ;
#22 = COORDINATED_UNIVERSAL_TIME_OFFSET ( 1, 0, .AHEAD. ) ;
#23 = DATE_AND_TIME ( #172, #202 ) ;
#24 = DATE_AND_TIME ( #73, #182 ) ;
#25 = DATE_AND_TIME ( #175, #144 ) ;
#26 = PERSON_AND_ORGANIZATION ( #146, #19 ) ;
#27 = AXIS2_PLACEMENT_3D ( 'NONE', #201, #36, #104 ) ;
#28 = ORIENTED_EDGE ( 'NONE', *, *, #214, .F. ) ;
#29 = ORIENTED_EDGE ( 'NONE', *, *, #67, .T. ) ;
#30 = CIRCLE ( 'NONE', #126, 0.9499999999999987343 ) ;
#31 = APPROVAL_PERSON_ORGANIZATION ( #95, #39, #93 ) ;
#32 = ADVANCED_FACE ( 'NONE', ( #139 ), #157, .T. ) ;
#33 = EDGE_LOOP ( 'NONE', ( #183 ) ) ;
#34 = FACE_BOUND ( 'NONE', #184, .T. ) ;
#35 = VERTEX_POINT ( 'NONE', #38 ) ;
#36 = DIRECTION ( 'NONE',  ( -3.491481338843133355E-15, 1.224646799147353207E-16, -1.000000000000000000 ) ) ;
#37 = AXIS2_PLACEMENT_3D ( 'NONE', #21, #132, #48 ) ;
#38 = CARTESIAN_POINT ( 'NONE',  ( 1.326762908760390423E-13, 0.7999999999999962697, 38.00000000000000000 ) ) ;
#39 = APPROVAL ( #135, 'UNSPECIFIED' ) ;
#40 = PERSON_AND_ORGANIZATION ( #146, #19 ) ;
#41 = DIRECTION ( 'NONE',  ( 0.0000000000000000000, 0.0000000000000000000, 1.000000000000000000 ) ) ;
#42 = EDGE_LOOP ( 'NONE', ( #185 ) ) ;
#43 = EDGE_LOOP ( 'NONE', ( #197 ) ) ;
#44 = EDGE_LOOP ( 'NONE', ( #196 ) ) ;
#45 = DIRECTION ( 'NONE',  ( 3.491481338843133355E-15, -1.224646799147353207E-16, 1.000000000000000000 ) ) ;
#46 = DIRECTION ( 'NONE',  ( 0.0000000000000000000, 1.000000000000000000, 0.0000000000000000000 ) ) ;
#47 = ADVANCED_FACE ( 'NONE', ( #61, #15 ), #2, .T. ) ;
#48 = DIRECTION ( 'NONE',  ( 4.275831445896958607E-31, 1.000000000000000000, 1.224646799147353207E-16 ) ) ;
#49 =( NAMED_UNIT ( * ) SI_UNIT ( $, .STERADIAN. ) SOLID_ANGLE_UNIT ( ) );
#50 = CARTESIAN_POINT ( 'NONE',  ( 4.189777606611760026E-14, 0.9499999999999995115, 12.00000000000000000 ) ) ;
#51 = PERSON_AND_ORGANIZATION ( #146, #19 ) ;
#52 = LOCAL_TIME ( 7, 53, 44.00000000000000000, #215 ) ;
#53 = SHAPE_DEFINITION_REPRESENTATION ( #56, #71 ) ;
#54 = PERSON_AND_ORGANIZATION_ROLE ( 'design_owner' ) ;
#55 = CARTESIAN_POINT ( 'NONE',  ( 4.189777606611760026E-14, -1.469576158976823947E-15, 12.00000000000000000 ) ) ;
#56 = PRODUCT_DEFINITION_SHAPE ( 'NONE', 'NONE',  #178 ) ;
#57 = EDGE_LOOP ( 'NONE', ( #29 ) ) ;
#58 = ORIENTED_EDGE ( 'NONE', *, *, #148, .T. ) ;
#59 = AXIS2_PLACEMENT_3D ( 'NONE', #130, #181, #115 ) ;
#60 = LOCAL_TIME ( 7, 53, 44.00000000000000000, #72 ) ;
#61 = FACE_OUTER_BOUND ( 'NONE', #43, .T. ) ;
#62 = FACE_OUTER_BOUND ( 'NONE', #163, .T. ) ;
#63 = CC_DESIGN_DATE_AND_TIME_ASSIGNMENT ( #24, #110, ( #178 ) ) ;
#64 = DIRECTION ( 'NONE',  ( 0.0000000000000000000, -1.000000000000000000, 0.0000000000000000000 ) ) ;
#65 = AXIS2_PLACEMENT_3D ( 'NONE', #68, #189, #87 ) ;
#66 = CARTESIAN_POINT ( 'NONE',  ( 1.326762908760390423E-13, -4.653657836759941941E-15, 38.00000000000000000 ) ) ;
#67 = EDGE_CURVE ( 'NONE', #169, #169, #30, .T. ) ;
#68 = CARTESIAN_POINT ( 'NONE',  ( 1.319779946082704535E-13, -4.629164900776995227E-15, 37.79999999999999716 ) ) ;
#69 = CONICAL_SURFACE ( 'NONE', #103, 0.9999999999999970024, 0.5235987755982848268 ) ;
#70 = CALENDAR_DATE ( 2021, 8, 10 ) ;
#71 = ADVANCED_BREP_SHAPE_REPRESENTATION ( '193', ( #145, #80, #114 ), #140 ) ;
#72 = COORDINATED_UNIVERSAL_TIME_OFFSET ( 1, 0, .AHEAD. ) ;
#73 = CALENDAR_DATE ( 2021, 8, 10 ) ;
#74 = PERSON_AND_ORGANIZATION_ROLE ( 'classification_officer' ) ;
#75 = PERSON_AND_ORGANIZATION_ROLE ( 'creator' ) ;
#76 = EDGE_CURVE ( 'NONE', #170, #170, #89, .T. ) ;
#77 = ORIENTED_EDGE ( 'NONE', *, *, #67, .F. ) ;
#78 = DIRECTION ( 'NONE',  ( -3.491481338843133355E-15, 1.224646799147353207E-16, -1.000000000000000000 ) ) ;
#79 = CC_DESIGN_APPROVAL ( #39, ( #167 ) ) ;
#80 = MANIFOLD_SOLID_BREP ( 'Corps-Déplacer/Copier1[2]', #219 ) ;
#81 = CYLINDRICAL_SURFACE ( 'NONE', #97, 0.9999999999999988898 ) ;
#82 = CYLINDRICAL_SURFACE ( 'NONE', #160, 0.9499999999999998446 ) ;
#83 = DIRECTION ( 'NONE',  ( 0.0000000000000000000, 1.000000000000000000, 0.0000000000000000000 ) ) ;
#84 = APPLICATION_PROTOCOL_DEFINITION ( 'international standard', 'config_control_design', 1994, #155 ) ;
#85 = APPROVAL ( #137, 'UNSPECIFIED' ) ;
#86 = PRODUCT ( '193', '193', '', ( #192 ) ) ;
#87 = DIRECTION ( 'NONE',  ( 0.0000000000000000000, 1.000000000000000000, 0.0000000000000000000 ) ) ;
#88 = FACE_OUTER_BOUND ( 'NONE', #42, .T. ) ;
#89 = CIRCLE ( 'NONE', #212, 0.9500000000000009548 ) ;
#90 = APPROVAL_PERSON_ORGANIZATION ( #7, #85, #106 ) ;
#91 = VERTEX_POINT ( 'NONE', #20 ) ;
#92 = DIRECTION ( 'NONE',  ( -3.491481338843133355E-15, 1.224646799147353207E-16, -1.000000000000000000 ) ) ;
#93 = APPROVAL_ROLE ( '' ) ;
#94 = PERSON_AND_ORGANIZATION_ROLE ( 'creator' ) ;
#95 = PERSON_AND_ORGANIZATION ( #146, #19 ) ;
#96 = DATE_TIME_ROLE ( 'classification_date' ) ;
#97 = AXIS2_PLACEMENT_3D ( 'NONE', #131, #187, #223 ) ;
#98 = CIRCLE ( 'NONE', #208, 0.9500000000000009548 ) ;
#99 = CC_DESIGN_PERSON_AND_ORGANIZATION_ASSIGNMENT ( #213, #54, ( #86 ) ) ;
#100 = FACE_OUTER_BOUND ( 'NONE', #116, .T. ) ;
#101 = EDGE_LOOP ( 'NONE', ( #199 ) ) ;
#102 = ADVANCED_FACE ( 'NONE', ( #162, #13 ), #81, .T. ) ;
#103 = AXIS2_PLACEMENT_3D ( 'NONE', #147, #45, #64 ) ;
#104 = DIRECTION ( 'NONE',  ( 0.0000000000000000000, 1.000000000000000000, 0.0000000000000000000 ) ) ;
#105 = CARTESIAN_POINT ( 'NONE',  ( 4.189777606611760026E-14, 7.123858967643808584E-33, 12.00000000000000000 ) ) ;
#106 = APPROVAL_ROLE ( '' ) ;
#107 = CALENDAR_DATE ( 2021, 8, 10 ) ;
#108 = ADVANCED_FACE ( 'NONE', ( #3 ), #168, .F. ) ;
#109 = CC_DESIGN_APPROVAL ( #85, ( #161 ) ) ;
#110 = DATE_TIME_ROLE ( 'creation_date' ) ;
#111 = DIRECTION ( 'NONE',  ( 0.0000000000000000000, 1.000000000000000000, 0.0000000000000000000 ) ) ;
#112 = DIRECTION ( 'NONE',  ( 4.275831445896958607E-31, 1.000000000000000000, 1.224646799147353207E-16 ) ) ;
#113 = PRODUCT_RELATED_PRODUCT_CATEGORY ( 'detail', '', ( #86 ) ) ;
#114 = AXIS2_PLACEMENT_3D ( 'NONE', #154, #41, #124 ) ;
#115 = DIRECTION ( 'NONE',  ( -4.054589356604712821E-31, -1.000000000000000000, -1.141265444721585237E-16 ) ) ;
#116 = EDGE_LOOP ( 'NONE', ( #11 ) ) ;
#117 = CARTESIAN_POINT ( 'NONE',  ( 1.319779946082704535E-13, 0.9999999999999963363, 37.79999999999999716 ) ) ;
#118 = CIRCLE ( 'NONE', #65, 1.000000000000000888 ) ;
#119 = CARTESIAN_POINT ( 'NONE',  ( 1.915017306309076213E-15, 0.9499999999999986233, 0.5484827557301502621 ) ) ;
#120 = PLANE ( 'NONE',  #6 ) ;
#121 = CIRCLE ( 'NONE', #27, 0.9999999999999970024 ) ;
#122 = APPROVAL_PERSON_ORGANIZATION ( #40, #193, #152 ) ;
#123 = CARTESIAN_POINT ( 'NONE',  ( 4.189777606611760026E-14, 0.9499999999999995115, 12.00000000000000000 ) ) ;
#124 = DIRECTION ( 'NONE',  ( 1.000000000000000000, 0.0000000000000000000, 0.0000000000000000000 ) ) ;
#125 = COORDINATED_UNIVERSAL_TIME_OFFSET ( 1, 0, .AHEAD. ) ;
#126 = AXIS2_PLACEMENT_3D ( 'NONE', #159, #12, #216 ) ;
#127 = AXIS2_PLACEMENT_3D ( 'NONE', #166, #203, #133 ) ;
#128 = DIRECTION ( 'NONE',  ( -3.491481338843133355E-15, 1.224646799147353207E-16, -1.000000000000000000 ) ) ;
#129 = EDGE_LOOP ( 'NONE', ( #58 ) ) ;
#130 = CARTESIAN_POINT ( 'NONE',  ( 1.915017306309075818E-15, -6.716976511924480143E-17, 0.5484827557301501511 ) ) ;
#131 = CARTESIAN_POINT ( 'NONE',  ( 0.0000000000000000000, 0.0000000000000000000, 0.0000000000000000000 ) ) ;
#132 = DIRECTION ( 'NONE',  ( -3.491481338843133355E-15, 1.224646799147353207E-16, -1.000000000000000000 ) ) ;
#133 = DIRECTION ( 'NONE',  ( -4.275831445896958607E-31, -1.000000000000000000, -1.224646799147353207E-16 ) ) ;
#134 = DIRECTION ( 'NONE',  ( -3.491481338843133355E-15, 1.224646799147353207E-16, -1.000000000000000000 ) ) ;
#135 = APPROVAL_STATUS ( 'not_yet_approved' ) ;
#136 = PERSON_AND_ORGANIZATION_ROLE ( 'design_supplier' ) ;
#137 = APPROVAL_STATUS ( 'not_yet_approved' ) ;
#138 = DESIGN_CONTEXT ( 'detailed design', #153, 'design' ) ;
#139 = FACE_OUTER_BOUND ( 'NONE', #57, .T. ) ;
#140 =( GEOMETRIC_REPRESENTATION_CONTEXT ( 3 ) GLOBAL_UNCERTAINTY_ASSIGNED_CONTEXT ( ( #179 ) ) GLOBAL_UNIT_ASSIGNED_CONTEXT ( ( #204, #4, #49 ) ) REPRESENTATION_CONTEXT ( 'NONE', 'WORKASPACE' ) );
#141 = EDGE_LOOP ( 'NONE', ( #77 ) ) ;
#142 = DIRECTION ( 'NONE',  ( -3.491481338843133355E-15, 1.224646799147353207E-16, -1.000000000000000000 ) ) ;
#143 = CIRCLE ( 'NONE', #165, 0.8000000000000009326 ) ;
#144 = LOCAL_TIME ( 7, 53, 44.00000000000000000, #22 ) ;
#145 = MANIFOLD_SOLID_BREP ( 'Corps-Déplacer/Copier1[1]', #177 ) ;
#146 = PERSON ( 'UNSPECIFIED', 'UNSPECIFIED', 'UNSPECIFIED', ('UNSPECIFIED'), ('UNSPECIFIED'), ('UNSPECIFIED') ) ;
#147 = CARTESIAN_POINT ( 'NONE',  ( 4.220014721974533807E-14, -1.480181911364072417E-15, 12.08660254037843984 ) ) ;
#148 = EDGE_CURVE ( 'NONE', #91, #91, #121, .T. ) ;
#149 = VERTEX_POINT ( 'NONE', #117 ) ;
#150 = CC_DESIGN_PERSON_AND_ORGANIZATION_ASSIGNMENT ( #51, #74, ( #167 ) ) ;
#151 = APPROVAL_DATE_TIME ( #156, #39 ) ;
#152 = APPROVAL_ROLE ( '' ) ;
#153 = APPLICATION_CONTEXT ( 'configuration controlled 3d designs of mechanical parts and assemblies' ) ;
#154 = CARTESIAN_POINT ( 'NONE',  ( 0.0000000000000000000, 0.0000000000000000000, 0.0000000000000000000 ) ) ;
#155 = APPLICATION_CONTEXT ( 'configuration controlled 3d designs of mechanical parts and assemblies' ) ;
#156 = DATE_AND_TIME ( #70, #60 ) ;
#157 = CONICAL_SURFACE ( 'NONE', #59, 0.9499999999999987343, 1.047197551196592746 ) ;
#158 = EDGE_CURVE ( 'NONE', #35, #35, #143, .T. ) ;
#159 = CARTESIAN_POINT ( 'NONE',  ( 1.915017306309075818E-15, -6.716976511924480143E-17, 0.5484827557301501511 ) ) ;
#160 = AXIS2_PLACEMENT_3D ( 'NONE', #220, #142, #112 ) ;
#161 = PRODUCT_DEFINITION_FORMATION_WITH_SPECIFIED_SOURCE ( 'ANY', '', #86, .NOT_KNOWN. ) ;
#162 = FACE_OUTER_BOUND ( 'NONE', #217, .T. ) ;
#163 = EDGE_LOOP ( 'NONE', ( #28 ) ) ;
#164 = CARTESIAN_POINT ( 'NONE',  ( 1.326762908760390423E-13, -4.653657836759941941E-15, 38.00000000000000000 ) ) ;
#165 = AXIS2_PLACEMENT_3D ( 'NONE', #66, #134, #186 ) ;
#166 = CARTESIAN_POINT ( 'NONE',  ( 4.189777606611760026E-14, 7.123858967643808584E-33, 12.00000000000000000 ) ) ;
#167 = SECURITY_CLASSIFICATION ( '', '', #176 ) ;
#168 = PLANE ( 'NONE',  #37 ) ;
#169 = VERTEX_POINT ( 'NONE', #119 ) ;
#170 = VERTEX_POINT ( 'NONE', #123 ) ;
#171 = APPROVAL_DATE_TIME ( #23, #85 ) ;
#172 = CALENDAR_DATE ( 2021, 8, 10 ) ;
#173 = APPROVAL_STATUS ( 'not_yet_approved' ) ;
#174 = ADVANCED_FACE ( 'NONE', ( #62 ), #120, .T. ) ;
#175 = CALENDAR_DATE ( 2021, 8, 10 ) ;
#176 = SECURITY_CLASSIFICATION_LEVEL ( 'unclassified' ) ;
#177 = CLOSED_SHELL ( 'NONE', ( #205, #198, #102, #47, #108 ) ) ;
#179 = UNCERTAINTY_MEASURE_WITH_UNIT (LENGTH_MEASURE( 1.000000000000000082E-05 ), #204, 'distance_accuracy_value', 'NONE');
#178 = PRODUCT_DEFINITION ( 'UNKNOWN', '', #161, #138 ) ;
#180 = CC_DESIGN_PERSON_AND_ORGANIZATION_ASSIGNMENT ( #26, #136, ( #161 ) ) ;
#181 = DIRECTION ( 'NONE',  ( 3.491481338843133355E-15, -1.224646799147353207E-16, 1.000000000000000000 ) ) ;
#182 = LOCAL_TIME ( 7, 53, 44.00000000000000000, #125 ) ;
#183 = ORIENTED_EDGE ( 'NONE', *, *, #158, .F. ) ;
#184 = EDGE_LOOP ( 'NONE', ( #200 ) ) ;
#185 = ORIENTED_EDGE ( 'NONE', *, *, #76, .T. ) ;
#186 = DIRECTION ( 'NONE',  ( 0.0000000000000000000, 1.000000000000000000, 0.0000000000000000000 ) ) ;
#187 = DIRECTION ( 'NONE',  ( -3.491481338843133355E-15, 1.224646799147353207E-16, -1.000000000000000000 ) ) ;
#188 = PLANE ( 'NONE',  #127 ) ;
#189 = DIRECTION ( 'NONE',  ( -3.491481338843133355E-15, 1.224646799147353207E-16, -1.000000000000000000 ) ) ;
#190 = AXIS2_PLACEMENT_3D ( 'NONE', #164, #78, #111 ) ;
#191 = APPLICATION_PROTOCOL_DEFINITION ( 'international standard', 'config_control_design', 1994, #153 ) ;
#192 = MECHANICAL_CONTEXT ( 'NONE', #155, 'mechanical' ) ;
#193 = APPROVAL ( #173, 'UNSPECIFIED' ) ;
#194 = DATE_AND_TIME ( #107, #52 ) ;
#195 = CC_DESIGN_SECURITY_CLASSIFICATION ( #167, ( #161 ) ) ;
#196 = ORIENTED_EDGE ( 'NONE', *, *, #158, .T. ) ;
#197 = ORIENTED_EDGE ( 'NONE', *, *, #210, .F. ) ;
#198 = ADVANCED_FACE ( 'NONE', ( #34, #1 ), #69, .T. ) ;
#199 = ORIENTED_EDGE ( 'NONE', *, *, #210, .T. ) ;
#200 = ORIENTED_EDGE ( 'NONE', *, *, #76, .F. ) ;
#201 = CARTESIAN_POINT ( 'NONE',  ( 4.220014721974533807E-14, -1.480181911364072417E-15, 12.08660254037843984 ) ) ;
#202 = LOCAL_TIME ( 7, 53, 44.00000000000000000, #8 ) ;
#203 = DIRECTION ( 'NONE',  ( 3.491481338843133355E-15, -1.224646799147353207E-16, 1.000000000000000000 ) ) ;
#204 =( LENGTH_UNIT ( ) NAMED_UNIT ( * ) SI_UNIT ( .MILLI., .METRE. ) );
#205 = ADVANCED_FACE ( 'NONE', ( #88 ), #188, .F. ) ;
#206 = DIRECTION ( 'NONE',  ( 3.491481338843133355E-15, -1.224646799147353207E-16, 1.000000000000000000 ) ) ;
#207 = DIRECTION ( 'NONE',  ( -4.275831445896958607E-31, -1.000000000000000000, -1.224646799147353207E-16 ) ) ;
#208 = AXIS2_PLACEMENT_3D ( 'NONE', #17, #92, #46 ) ;
#209 = APPROVAL_DATE_TIME ( #194, #193 ) ;
#210 = EDGE_CURVE ( 'NONE', #149, #149, #118, .T. ) ;
#211 = PERSON_AND_ORGANIZATION ( #146, #19 ) ;
#212 = AXIS2_PLACEMENT_3D ( 'NONE', #55, #128, #83 ) ;
#213 = PERSON_AND_ORGANIZATION ( #146, #19 ) ;
#214 = EDGE_CURVE ( 'NONE', #16, #16, #98, .T. ) ;
#215 = COORDINATED_UNIVERSAL_TIME_OFFSET ( 1, 0, .AHEAD. ) ;
#216 = DIRECTION ( 'NONE',  ( 4.054589356604712821E-31, 1.000000000000000000, 1.141265444721585237E-16 ) ) ;
#217 = EDGE_LOOP ( 'NONE', ( #218 ) ) ;
#218 = ORIENTED_EDGE ( 'NONE', *, *, #148, .F. ) ;
#219 = CLOSED_SHELL ( 'NONE', ( #32, #18, #174 ) ) ;
#220 = CARTESIAN_POINT ( 'NONE',  ( 0.0000000000000000000, 0.0000000000000000000, 0.0000000000000000000 ) ) ;
#221 = CC_DESIGN_DATE_AND_TIME_ASSIGNMENT ( #25, #96, ( #167 ) ) ;
#222 = CC_DESIGN_PERSON_AND_ORGANIZATION_ASSIGNMENT ( #5, #94, ( #161 ) ) ;
#223 = DIRECTION ( 'NONE',  ( 4.275831445896957731E-31, 1.000000000000000000, 1.224646799147353454E-16 ) ) ;
ENDSEC;
END-ISO-10303-21;
