ISO-10303-21;
HEADER;
FILE_DESCRIPTION (( 'STEP AP203' ),
    '1' );
FILE_NAME ('19241.step',
    '2021-12-06T12:58:29',
    ( '' ),
    ( '' ),
    'SwSTEP 2.0',
    'SolidWorks 2019',
    '' );
FILE_SCHEMA (( 'CONFIG_CONTROL_DESIGN' ));
ENDSEC;

DATA;
#1 = LOCAL_TIME ( 13, 58, 29.00000000000000000, #148 ) ;
#2 = DIRECTION ( 'NONE',  ( 1.336197326842799674E-31, 1.000000000000000000, 3.827021247335478926E-17 ) ) ;
#3 =( LENGTH_UNIT ( ) NAMED_UNIT ( * ) SI_UNIT ( .MILLI., .METRE. ) );
#4 = CLOSED_SHELL ( 'NONE', ( #6, #76, #168, #111 ) ) ;
#5 = CARTESIAN_POINT ( 'NONE',  ( 5.586370142149012580E-15, 10.99999999999999822, 1.599999999999999645 ) ) ;
#6 = ADVANCED_FACE ( 'NONE', ( #116, #98 ), #44, .T. ) ;
#7 = VERTEX_POINT ( 'NONE', #117 ) ;
#8 = APPLICATION_CONTEXT ( 'configuration controlled 3d designs of mechanical parts and assemblies' ) ;
#9 = MECHANICAL_CONTEXT ( 'NONE', #49, 'mechanical' ) ;
#10 = CARTESIAN_POINT ( 'NONE',  ( 0.0000000000000000000, 0.0000000000000000000, 0.0000000000000000000 ) ) ;
#11 = APPLICATION_PROTOCOL_DEFINITION ( 'international standard', 'config_control_design', 1994, #49 ) ;
#12 = APPROVAL_ROLE ( '' ) ;
#13 = EDGE_CURVE ( 'NONE', #133, #133, #143, .T. ) ;
#14 = CALENDAR_DATE ( 2021, 6, 12 ) ;
#15 = EDGE_LOOP ( 'NONE', ( #61 ) ) ;
#16 = EDGE_LOOP ( 'NONE', ( #60 ) ) ;
#17 = EDGE_LOOP ( 'NONE', ( #29 ) ) ;
#18 = CARTESIAN_POINT ( 'NONE',  ( 5.586370142149013368E-15, -6.123233995736766036E-17, 1.599999999999999867 ) ) ;
#19 = DIRECTION ( 'NONE',  ( -1.336197326842799674E-31, -1.000000000000000000, -3.827021247335478926E-17 ) ) ;
#20 = DIRECTION ( 'NONE',  ( -3.491481338843133355E-15, 3.827021247335478926E-17, -1.000000000000000000 ) ) ;
#21 = DIRECTION ( 'NONE',  ( 1.348150961071065097E-31, 1.000000000000000000, 3.794707603699265519E-17 ) ) ;
#22 = PERSON_AND_ORGANIZATION ( #169, #32 ) ;
#23 = DIRECTION ( 'NONE',  ( 0.0000000000000000000, 0.0000000000000000000, 1.000000000000000000 ) ) ;
#24 = DATE_AND_TIME ( #126, #25 ) ;
#25 = LOCAL_TIME ( 13, 58, 29.00000000000000000, #124 ) ;
#26 = PRODUCT_DEFINITION_FORMATION_WITH_SPECIFIED_SOURCE ( 'ANY', '', #123, .NOT_KNOWN. ) ;
#27 = DATE_TIME_ROLE ( 'classification_date' ) ;
#28 = APPROVAL ( #162, 'UNSPECIFIED' ) ;
#29 = ORIENTED_EDGE ( 'NONE', *, *, #129, .T. ) ;
#30 = DIRECTION ( 'NONE',  ( -3.491481338843133355E-15, 3.827021247335478926E-17, -1.000000000000000000 ) ) ;
#31 = FACE_OUTER_BOUND ( 'NONE', #82, .T. ) ;
#32 = ORGANIZATION ( 'UNSPECIFIED', 'UNSPECIFIED', '' ) ;
#33 = ADVANCED_BREP_SHAPE_REPRESENTATION ( '19241', ( #105, #136 ), #48 ) ;
#34 = APPROVAL_ROLE ( '' ) ;
#35 = LOCAL_TIME ( 13, 58, 29.00000000000000000, #137 ) ;
#36 = PERSON_AND_ORGANIZATION ( #169, #32 ) ;
#37 = PERSON_AND_ORGANIZATION ( #169, #32 ) ;
#38 = PERSON_AND_ORGANIZATION ( #169, #32 ) ;
#39 = LOCAL_TIME ( 13, 58, 29.00000000000000000, #56 ) ;
#40 = CARTESIAN_POINT ( 'NONE',  ( 0.0000000000000000000, 0.0000000000000000000, 0.0000000000000000000 ) ) ;
#41 = CYLINDRICAL_SURFACE ( 'NONE', #165, 40.00000000000000000 ) ;
#42 = AXIS2_PLACEMENT_3D ( 'NONE', #5, #159, #19 ) ;
#43 = ORIENTED_EDGE ( 'NONE', *, *, #70, .F. ) ;
#44 = PLANE ( 'NONE',  #160 ) ;
#45 = CC_DESIGN_SECURITY_CLASSIFICATION ( #69, ( #26 ) ) ;
#46 =( NAMED_UNIT ( * ) PLANE_ANGLE_UNIT ( ) SI_UNIT ( $, .RADIAN. ) );
#47 = PRODUCT_DEFINITION ( 'UNKNOWN', '', #26, #92 ) ;
#48 =( GEOMETRIC_REPRESENTATION_CONTEXT ( 3 ) GLOBAL_UNCERTAINTY_ASSIGNED_CONTEXT ( ( #57 ) ) GLOBAL_UNIT_ASSIGNED_CONTEXT ( ( #3, #46, #95 ) ) REPRESENTATION_CONTEXT ( 'NONE', 'WORKASPACE' ) );
#49 = APPLICATION_CONTEXT ( 'configuration controlled 3d designs of mechanical parts and assemblies' ) ;
#50 = DIRECTION ( 'NONE',  ( 1.336197326842799674E-31, 1.000000000000000000, 3.827021247335478926E-17 ) ) ;
#51 = APPROVAL_STATUS ( 'not_yet_approved' ) ;
#52 = SHAPE_DEFINITION_REPRESENTATION ( #163, #33 ) ;
#53 = CIRCLE ( 'NONE', #140, 40.00000000000000000 ) ;
#54 = APPROVAL_ROLE ( '' ) ;
#55 = APPROVAL_DATE_TIME ( #106, #28 ) ;
#56 = COORDINATED_UNIVERSAL_TIME_OFFSET ( 1, 0, .AHEAD. ) ;
#57 = UNCERTAINTY_MEASURE_WITH_UNIT (LENGTH_MEASURE( 1.000000000000000082E-05 ), #3, 'distance_accuracy_value', 'NONE');
#58 = CC_DESIGN_APPROVAL ( #119, ( #69 ) ) ;
#59 = EDGE_LOOP ( 'NONE', ( #43 ) ) ;
#60 = ORIENTED_EDGE ( 'NONE', *, *, #129, .F. ) ;
#61 = ORIENTED_EDGE ( 'NONE', *, *, #141, .F. ) ;
#62 = APPROVAL_PERSON_ORGANIZATION ( #146, #119, #34 ) ;
#63 = CALENDAR_DATE ( 2021, 6, 12 ) ;
#64 = CALENDAR_DATE ( 2021, 6, 12 ) ;
#65 = PERSON_AND_ORGANIZATION ( #169, #32 ) ;
#66 = CC_DESIGN_PERSON_AND_ORGANIZATION_ASSIGNMENT ( #37, #84, ( #26 ) ) ;
#67 = PERSON_AND_ORGANIZATION_ROLE ( 'design_supplier' ) ;
#68 = DATE_AND_TIME ( #14, #35 ) ;
#69 = SECURITY_CLASSIFICATION ( '', '', #161 ) ;
#70 = EDGE_CURVE ( 'NONE', #71, #71, #74, .T. ) ;
#71 = VERTEX_POINT ( 'NONE', #158 ) ;
#72 = DIRECTION ( 'NONE',  ( -3.491481338843133355E-15, 3.827021247335478926E-17, -1.000000000000000000 ) ) ;
#73 = VERTEX_POINT ( 'NONE', #122 ) ;
#74 = CIRCLE ( 'NONE', #108, 10.99999999999999822 ) ;
#75 = DATE_AND_TIME ( #64, #78 ) ;
#76 = ADVANCED_FACE ( 'NONE', ( #31, #152 ), #41, .T. ) ;
#77 = APPROVAL_DATE_TIME ( #24, #134 ) ;
#78 = LOCAL_TIME ( 13, 58, 29.00000000000000000, #107 ) ;
#79 = APPROVAL_STATUS ( 'not_yet_approved' ) ;
#80 = ORIENTED_EDGE ( 'NONE', *, *, #13, .T. ) ;
#81 = CYLINDRICAL_SURFACE ( 'NONE', #115, 11.00000000000000000 ) ;
#82 = EDGE_LOOP ( 'NONE', ( #167 ) ) ;
#83 = FACE_BOUND ( 'NONE', #156, .T. ) ;
#84 = PERSON_AND_ORGANIZATION_ROLE ( 'creator' ) ;
#85 = PRODUCT_RELATED_PRODUCT_CATEGORY ( 'detail', '', ( #123 ) ) ;
#86 = PERSON_AND_ORGANIZATION ( #169, #32 ) ;
#87 = FACE_OUTER_BOUND ( 'NONE', #17, .T. ) ;
#88 = DIRECTION ( 'NONE',  ( -3.491481338843133355E-15, 3.827021247335478926E-17, -1.000000000000000000 ) ) ;
#89 = DIRECTION ( 'NONE',  ( -3.491481338843133355E-15, 3.827021247335478926E-17, -1.000000000000000000 ) ) ;
#90 = CC_DESIGN_APPROVAL ( #28, ( #26 ) ) ;
#91 = PLANE ( 'NONE',  #42 ) ;
#92 = DESIGN_CONTEXT ( 'detailed design', #8, 'design' ) ;
#93 = PERSON_AND_ORGANIZATION_ROLE ( 'creator' ) ;
#94 = PERSON_AND_ORGANIZATION_ROLE ( 'design_owner' ) ;
#95 =( NAMED_UNIT ( * ) SI_UNIT ( $, .STERADIAN. ) SOLID_ANGLE_UNIT ( ) );
#96 = DATE_AND_TIME ( #104, #39 ) ;
#97 = EDGE_LOOP ( 'NONE', ( #80 ) ) ;
#98 = FACE_BOUND ( 'NONE', #16, .T. ) ;
#99 = CARTESIAN_POINT ( 'NONE',  ( -5.344789307371198171E-30, 5.858436651022882033E-32, -1.530808498934191521E-15 ) ) ;
#100 = CARTESIAN_POINT ( 'NONE',  ( 5.586370142149008635E-15, -6.123233995736761105E-17, 1.599999999999998535 ) ) ;
#101 = AXIS2_PLACEMENT_3D ( 'NONE', #99, #30, #153 ) ;
#102 = CC_DESIGN_DATE_AND_TIME_ASSIGNMENT ( #96, #27, ( #69 ) ) ;
#103 = APPROVAL_PERSON_ORGANIZATION ( #36, #134, #12 ) ;
#104 = CALENDAR_DATE ( 2021, 6, 12 ) ;
#105 = MANIFOLD_SOLID_BREP ( 'Corps-Déplacer/Copier1', #4 ) ;
#106 = DATE_AND_TIME ( #63, #1 ) ;
#107 = COORDINATED_UNIVERSAL_TIME_OFFSET ( 1, 0, .AHEAD. ) ;
#108 = AXIS2_PLACEMENT_3D ( 'NONE', #18, #157, #166 ) ;
#109 = CC_DESIGN_PERSON_AND_ORGANIZATION_ASSIGNMENT ( #86, #135, ( #69 ) ) ;
#110 = DIRECTION ( 'NONE',  ( 1.000000000000000000, 0.0000000000000000000, 0.0000000000000000000 ) ) ;
#111 = ADVANCED_FACE ( 'NONE', ( #87, #139 ), #81, .F. ) ;
#112 = DIRECTION ( 'NONE',  ( 1.336197326842799674E-31, 1.000000000000000000, 3.827021247335478926E-17 ) ) ;
#113 = EDGE_LOOP ( 'NONE', ( #138 ) ) ;
#114 = CC_DESIGN_PERSON_AND_ORGANIZATION_ASSIGNMENT ( #65, #93, ( #47 ) ) ;
#115 = AXIS2_PLACEMENT_3D ( 'NONE', #128, #20, #132 ) ;
#116 = FACE_OUTER_BOUND ( 'NONE', #97, .T. ) ;
#117 = CARTESIAN_POINT ( 'NONE',  ( 5.586370142149014157E-15, 40.00000000000000000, 1.600000000000000089 ) ) ;
#118 = CIRCLE ( 'NONE', #155, 11.00000000000000000 ) ;
#119 = APPROVAL ( #79, 'UNSPECIFIED' ) ;
#120 = CARTESIAN_POINT ( 'NONE',  ( -1.469817059527079357E-30, 1.611070079031292258E-32, -4.209723372069026634E-16 ) ) ;
#121 = FACE_OUTER_BOUND ( 'NONE', #15, .T. ) ;
#122 = CARTESIAN_POINT ( 'NONE',  ( 1.710569414459005214E-46, 11.00000000000000000, 0.0000000000000000000 ) ) ;
#123 = PRODUCT ( '19241', '19241', '', ( #9 ) ) ;
#124 = COORDINATED_UNIVERSAL_TIME_OFFSET ( 1, 0, .AHEAD. ) ;
#125 = DATE_TIME_ROLE ( 'creation_date' ) ;
#126 = CALENDAR_DATE ( 2021, 6, 12 ) ;
#127 = ORIENTED_EDGE ( 'NONE', *, *, #70, .T. ) ;
#128 = CARTESIAN_POINT ( 'NONE',  ( 0.0000000000000000000, 0.0000000000000000000, 0.0000000000000000000 ) ) ;
#129 = EDGE_CURVE ( 'NONE', #73, #73, #118, .T. ) ;
#130 = APPROVAL_PERSON_ORGANIZATION ( #22, #28, #54 ) ;
#131 = CC_DESIGN_PERSON_AND_ORGANIZATION_ASSIGNMENT ( #38, #67, ( #26 ) ) ;
#132 = DIRECTION ( 'NONE',  ( 1.336197326842799674E-31, 1.000000000000000000, 3.827021247335478926E-17 ) ) ;
#133 = VERTEX_POINT ( 'NONE', #145 ) ;
#134 = APPROVAL ( #51, 'UNSPECIFIED' ) ;
#135 = PERSON_AND_ORGANIZATION_ROLE ( 'classification_officer' ) ;
#136 = AXIS2_PLACEMENT_3D ( 'NONE', #10, #23, #110 ) ;
#137 = COORDINATED_UNIVERSAL_TIME_OFFSET ( 1, 0, .AHEAD. ) ;
#138 = ORIENTED_EDGE ( 'NONE', *, *, #13, .F. ) ;
#139 = FACE_OUTER_BOUND ( 'NONE', #59, .T. ) ;
#140 = AXIS2_PLACEMENT_3D ( 'NONE', #100, #72, #21 ) ;
#141 = EDGE_CURVE ( 'NONE', #7, #7, #53, .T. ) ;
#142 = CARTESIAN_POINT ( 'NONE',  ( -1.937486123922059582E-30, 11.00000000000000000, -5.549180808636445275E-16 ) ) ;
#143 = CIRCLE ( 'NONE', #101, 40.00000000000000000 ) ;
#144 = CC_DESIGN_APPROVAL ( #134, ( #47 ) ) ;
#145 = CARTESIAN_POINT ( 'NONE',  ( 6.842277657836020854E-46, 40.00000000000000000, 0.0000000000000000000 ) ) ;
#146 = PERSON_AND_ORGANIZATION ( #169, #32 ) ;
#147 = CC_DESIGN_PERSON_AND_ORGANIZATION_ASSIGNMENT ( #164, #94, ( #123 ) ) ;
#148 = COORDINATED_UNIVERSAL_TIME_OFFSET ( 1, 0, .AHEAD. ) ;
#149 = APPLICATION_PROTOCOL_DEFINITION ( 'international standard', 'config_control_design', 1994, #8 ) ;
#150 = CC_DESIGN_DATE_AND_TIME_ASSIGNMENT ( #75, #125, ( #47 ) ) ;
#151 = APPROVAL_DATE_TIME ( #68, #119 ) ;
#152 = FACE_OUTER_BOUND ( 'NONE', #113, .T. ) ;
#153 = DIRECTION ( 'NONE',  ( 1.336197326842799674E-31, 1.000000000000000000, 3.827021247335478926E-17 ) ) ;
#154 = DIRECTION ( 'NONE',  ( -3.491481338843133355E-15, 3.827021247335478926E-17, -1.000000000000000000 ) ) ;
#155 = AXIS2_PLACEMENT_3D ( 'NONE', #120, #89, #50 ) ;
#156 = EDGE_LOOP ( 'NONE', ( #127 ) ) ;
#157 = DIRECTION ( 'NONE',  ( -3.491481338843133355E-15, 3.827021247335478926E-17, -1.000000000000000000 ) ) ;
#158 = CARTESIAN_POINT ( 'NONE',  ( 5.586370142149014946E-15, 10.99999999999999822, 1.600000000000000311 ) ) ;
#159 = DIRECTION ( 'NONE',  ( 3.491481338843133355E-15, -3.827021247335478926E-17, 1.000000000000000000 ) ) ;
#160 = AXIS2_PLACEMENT_3D ( 'NONE', #142, #88, #2 ) ;
#161 = SECURITY_CLASSIFICATION_LEVEL ( 'unclassified' ) ;
#162 = APPROVAL_STATUS ( 'not_yet_approved' ) ;
#163 = PRODUCT_DEFINITION_SHAPE ( 'NONE', 'NONE',  #47 ) ;
#164 = PERSON_AND_ORGANIZATION ( #169, #32 ) ;
#165 = AXIS2_PLACEMENT_3D ( 'NONE', #40, #154, #112 ) ;
#166 = DIRECTION ( 'NONE',  ( 1.400676323190717163E-31, 1.000000000000000000, 3.942553354492743901E-17 ) ) ;
#167 = ORIENTED_EDGE ( 'NONE', *, *, #141, .T. ) ;
#168 = ADVANCED_FACE ( 'NONE', ( #83, #121 ), #91, .T. ) ;
#169 = PERSON ( 'UNSPECIFIED', 'UNSPECIFIED', 'UNSPECIFIED', ('UNSPECIFIED'), ('UNSPECIFIED'), ('UNSPECIFIED') ) ;
ENDSEC;
END-ISO-10303-21;
