ISO-10303-21;
HEADER;
FILE_DESCRIPTION (( 'STEP AP203' ),
    '1' );
FILE_NAME ('191.step',
    '2021-10-08T05:53:43',
    ( '' ),
    ( '' ),
    'SwSTEP 2.0',
    'SolidWorks 2019',
    '' );
FILE_SCHEMA (( 'CONFIG_CONTROL_DESIGN' ));
ENDSEC;

DATA;
#1 = CYLINDRICAL_SURFACE ( 'NONE', #155, 0.8499999999999996447 ) ;
#2 = CIRCLE ( 'NONE', #134, 0.8500000000000007550 ) ;
#3 = AXIS2_PLACEMENT_3D ( 'NONE', #37, #101, #35 ) ;
#4 = COORDINATED_UNIVERSAL_TIME_OFFSET ( 1, 0, .AHEAD. ) ;
#5 = VERTEX_POINT ( 'NONE', #75 ) ;
#6 = PERSON_AND_ORGANIZATION ( #38, #190 ) ;
#7 = MANIFOLD_SOLID_BREP ( 'Corps-Déplacer/Copier1[2]', #9 ) ;
#8 = ADVANCED_BREP_SHAPE_REPRESENTATION ( '191', ( #151, #7, #207 ), #158 ) ;
#9 = CLOSED_SHELL ( 'NONE', ( #174, #191, #33 ) ) ;
#10 = APPLICATION_CONTEXT ( 'configuration controlled 3d designs of mechanical parts and assemblies' ) ;
#11 = ADVANCED_FACE ( 'NONE', ( #92, #125 ), #13, .T. ) ;
#12 = PERSON_AND_ORGANIZATION_ROLE ( 'design_supplier' ) ;
#13 = CYLINDRICAL_SURFACE ( 'NONE', #170, 0.9999999999999993339 ) ;
#14 = PERSON_AND_ORGANIZATION ( #38, #190 ) ;
#15 = AXIS2_PLACEMENT_3D ( 'NONE', #105, #25, #118 ) ;
#16 = EDGE_LOOP ( 'NONE', ( #162 ) ) ;
#17 = EDGE_CURVE ( 'NONE', #156, #156, #76, .T. ) ;
#18 = APPROVAL_ROLE ( '' ) ;
#19 = DATE_AND_TIME ( #53, #63 ) ;
#20 = VERTEX_POINT ( 'NONE', #196 ) ;
#21 = APPROVAL ( #60, 'UNSPECIFIED' ) ;
#22 = CARTESIAN_POINT ( 'NONE',  ( 1.713436537223909060E-15, -6.009926352774530778E-17, 0.4907477288111866676 ) ) ;
#23 = APPROVAL_PERSON_ORGANIZATION ( #14, #154, #18 ) ;
#24 = DIRECTION ( 'NONE',  ( 0.0000000000000000000, 1.000000000000000000, 0.0000000000000000000 ) ) ;
#25 = DIRECTION ( 'NONE',  ( -3.491481338843133355E-15, 1.224646799147353207E-16, -1.000000000000000000 ) ) ;
#26 = DIRECTION ( 'NONE',  ( 4.275831445896958607E-31, 1.000000000000000000, 1.224646799147353207E-16 ) ) ;
#27 = CC_DESIGN_APPROVAL ( #21, ( #67 ) ) ;
#28 = ADVANCED_FACE ( 'NONE', ( #68, #94 ), #172, .T. ) ;
#29 = ORIENTED_EDGE ( 'NONE', *, *, #52, .F. ) ;
#30 = DIRECTION ( 'NONE',  ( 0.0000000000000000000, 1.000000000000000000, 0.0000000000000000000 ) ) ;
#31 = CONICAL_SURFACE ( 'NONE', #57, 0.8499999999999986455, 1.047197551196592746 ) ;
#32 = DIRECTION ( 'NONE',  ( 4.275831445896957731E-31, 1.000000000000000000, 1.224646799147353207E-16 ) ) ;
#33 = ADVANCED_FACE ( 'NONE', ( #56 ), #187, .T. ) ;
#34 =( NAMED_UNIT ( * ) SI_UNIT ( $, .STERADIAN. ) SOLID_ANGLE_UNIT ( ) );
#35 = DIRECTION ( 'NONE',  ( -4.275831445896958607E-31, -1.000000000000000000, -1.224646799147353207E-16 ) ) ;
#36 = PERSON_AND_ORGANIZATION ( #38, #190 ) ;
#37 = CARTESIAN_POINT ( 'NONE',  ( 4.189777606611760026E-14, 6.373979076312878412E-33, 12.00000000000000000 ) ) ;
#38 = PERSON ( 'UNSPECIFIED', 'UNSPECIFIED', 'UNSPECIFIED', ('UNSPECIFIED'), ('UNSPECIFIED'), ('UNSPECIFIED') ) ;
#39 = DIRECTION ( 'NONE',  ( -3.491481338843133355E-15, 1.224646799147353207E-16, -1.000000000000000000 ) ) ;
#40 = DIRECTION ( 'NONE',  ( -4.531599869146444411E-31, -1.000000000000000000, -1.275531967630007218E-16 ) ) ;
#41 = DIRECTION ( 'NONE',  ( -3.491481338843133355E-15, 1.224646799147353207E-16, -1.000000000000000000 ) ) ;
#42 = APPLICATION_CONTEXT ( 'configuration controlled 3d designs of mechanical parts and assemblies' ) ;
#43 = AXIS2_PLACEMENT_3D ( 'NONE', #103, #164, #185 ) ;
#44 = EDGE_CURVE ( 'NONE', #5, #5, #2, .T. ) ;
#45 = CIRCLE ( 'NONE', #90, 0.9999999999999978906 ) ;
#46 = AXIS2_PLACEMENT_3D ( 'NONE', #22, #87, #132 ) ;
#47 = UNCERTAINTY_MEASURE_WITH_UNIT (LENGTH_MEASURE( 1.000000000000000082E-05 ), #146, 'distance_accuracy_value', 'NONE');
#48 = COORDINATED_UNIVERSAL_TIME_OFFSET ( 1, 0, .AHEAD. ) ;
#49 = ORIENTED_EDGE ( 'NONE', *, *, #64, .F. ) ;
#50 = APPLICATION_PROTOCOL_DEFINITION ( 'international standard', 'config_control_design', 1994, #42 ) ;
#51 = EDGE_LOOP ( 'NONE', ( #160 ) ) ;
#52 = EDGE_CURVE ( 'NONE', #205, #205, #45, .T. ) ;
#53 = CALENDAR_DATE ( 2021, 8, 10 ) ;
#54 = COORDINATED_UNIVERSAL_TIME_OFFSET ( 1, 0, .AHEAD. ) ;
#55 = CARTESIAN_POINT ( 'NONE',  ( 1.326762908760390423E-13, 0.7999999999999962697, 38.00000000000000000 ) ) ;
#56 = FACE_OUTER_BOUND ( 'NONE', #211, .T. ) ;
#57 = AXIS2_PLACEMENT_3D ( 'NONE', #86, #133, #40 ) ;
#58 = DATE_AND_TIME ( #110, #204 ) ;
#59 = PLANE ( 'NONE',  #3 ) ;
#60 = APPROVAL_STATUS ( 'not_yet_approved' ) ;
#61 = CARTESIAN_POINT ( 'NONE',  ( 4.280488952700084525E-14, 0.9999999999999963363, 12.25980762113533373 ) ) ;
#62 = CC_DESIGN_PERSON_AND_ORGANIZATION_ASSIGNMENT ( #127, #140, ( #169 ) ) ;
#63 = LOCAL_TIME ( 7, 53, 43.00000000000000000, #114 ) ;
#64 = EDGE_CURVE ( 'NONE', #20, #20, #106, .T. ) ;
#65 = ORIENTED_EDGE ( 'NONE', *, *, #220, .F. ) ;
#66 = SECURITY_CLASSIFICATION_LEVEL ( 'unclassified' ) ;
#67 = SECURITY_CLASSIFICATION ( '', '', #66 ) ;
#68 = FACE_OUTER_BOUND ( 'NONE', #109, .T. ) ;
#69 = APPROVAL_DATE_TIME ( #19, #154 ) ;
#70 = CC_DESIGN_PERSON_AND_ORGANIZATION_ASSIGNMENT ( #126, #193, ( #67 ) ) ;
#71 = EDGE_LOOP ( 'NONE', ( #159 ) ) ;
#72 = PLANE ( 'NONE',  #121 ) ;
#73 = CARTESIAN_POINT ( 'NONE',  ( 1.326762908760390423E-13, 5.999039130647367482E-33, 38.00000000000000000 ) ) ;
#74 = CARTESIAN_POINT ( 'NONE',  ( 4.189777606611760026E-14, -1.469576158976823947E-15, 12.00000000000000000 ) ) ;
#75 = CARTESIAN_POINT ( 'NONE',  ( 4.189777606611760026E-14, 0.8499999999999992006, 12.00000000000000000 ) ) ;
#76 = CIRCLE ( 'NONE', #209, 0.8000000000000009326 ) ;
#77 = ADVANCED_FACE ( 'NONE', ( #85 ), #59, .F. ) ;
#78 = DIRECTION ( 'NONE',  ( 1.000000000000000000, 0.0000000000000000000, 0.0000000000000000000 ) ) ;
#79 = DIRECTION ( 'NONE',  ( -3.491481338843133355E-15, 1.224646799147353207E-16, -1.000000000000000000 ) ) ;
#80 = AXIS2_PLACEMENT_3D ( 'NONE', #128, #144, #198 ) ;
#81 = APPROVAL_STATUS ( 'not_yet_approved' ) ;
#82 = CARTESIAN_POINT ( 'NONE',  ( 1.713436537223909455E-15, 0.8499999999999985345, 0.4907477288111867786 ) ) ;
#83 = EDGE_LOOP ( 'NONE', ( #195 ) ) ;
#84 = VERTEX_POINT ( 'NONE', #82 ) ;
#85 = FACE_OUTER_BOUND ( 'NONE', #83, .T. ) ;
#86 = CARTESIAN_POINT ( 'NONE',  ( 1.713436537223909060E-15, -6.009926352774530778E-17, 0.4907477288111866676 ) ) ;
#87 = DIRECTION ( 'NONE',  ( -3.491481338843133355E-15, 1.224646799147353207E-16, -1.000000000000000000 ) ) ;
#88 = FACE_BOUND ( 'NONE', #130, .T. ) ;
#89 = LOCAL_TIME ( 7, 53, 43.00000000000000000, #54 ) ;
#90 = AXIS2_PLACEMENT_3D ( 'NONE', #119, #41, #24 ) ;
#91 = CC_DESIGN_PERSON_AND_ORGANIZATION_ASSIGNMENT ( #36, #12, ( #100 ) ) ;
#92 = FACE_OUTER_BOUND ( 'NONE', #182, .T. ) ;
#93 = MECHANICAL_CONTEXT ( 'NONE', #42, 'mechanical' ) ;
#94 = FACE_BOUND ( 'NONE', #16, .T. ) ;
#95 = EDGE_LOOP ( 'NONE', ( #180 ) ) ;
#96 = APPROVAL_ROLE ( '' ) ;
#97 = ORIENTED_EDGE ( 'NONE', *, *, #220, .T. ) ;
#98 = PERSON_AND_ORGANIZATION_ROLE ( 'creator' ) ;
#99 = CLOSED_SHELL ( 'NONE', ( #77, #197, #11, #28, #147 ) ) ;
#100 = PRODUCT_DEFINITION_FORMATION_WITH_SPECIFIED_SOURCE ( 'ANY', '', #169, .NOT_KNOWN. ) ;
#101 = DIRECTION ( 'NONE',  ( 3.491481338843133355E-15, -1.224646799147353207E-16, 1.000000000000000000 ) ) ;
#102 = DIRECTION ( 'NONE',  ( 0.0000000000000000000, 1.000000000000000000, 0.0000000000000000000 ) ) ;
#103 = CARTESIAN_POINT ( 'NONE',  ( 4.280488952700084525E-14, -1.501393416138571330E-15, 12.25980762113533373 ) ) ;
#104 = CC_DESIGN_PERSON_AND_ORGANIZATION_ASSIGNMENT ( #194, #98, ( #124 ) ) ;
#105 = CARTESIAN_POINT ( 'NONE',  ( 4.189777606611760026E-14, -1.469576158976823947E-15, 12.00000000000000000 ) ) ;
#106 = CIRCLE ( 'NONE', #15, 0.8500000000000007550 ) ;
#107 = CC_DESIGN_PERSON_AND_ORGANIZATION_ASSIGNMENT ( #179, #115, ( #100 ) ) ;
#108 = LOCAL_TIME ( 7, 53, 43.00000000000000000, #199 ) ;
#109 = EDGE_LOOP ( 'NONE', ( #218 ) ) ;
#110 = CALENDAR_DATE ( 2021, 8, 10 ) ;
#111 = ORIENTED_EDGE ( 'NONE', *, *, #44, .F. ) ;
#112 = CARTESIAN_POINT ( 'NONE',  ( 0.0000000000000000000, 0.0000000000000000000, 0.0000000000000000000 ) ) ;
#113 = APPROVAL_PERSON_ORGANIZATION ( #201, #138, #96 ) ;
#114 = COORDINATED_UNIVERSAL_TIME_OFFSET ( 1, 0, .AHEAD. ) ;
#115 = PERSON_AND_ORGANIZATION_ROLE ( 'creator' ) ;
#116 = DATE_TIME_ROLE ( 'creation_date' ) ;
#117 = CARTESIAN_POINT ( 'NONE',  ( 1.319779946082704535E-13, -4.629164900776995227E-15, 37.79999999999999716 ) ) ;
#118 = DIRECTION ( 'NONE',  ( 0.0000000000000000000, 1.000000000000000000, 0.0000000000000000000 ) ) ;
#119 = CARTESIAN_POINT ( 'NONE',  ( 4.280488952700084525E-14, -1.501393416138571330E-15, 12.25980762113533373 ) ) ;
#120 = DIRECTION ( 'NONE',  ( -3.491481338843133355E-15, 1.224646799147353207E-16, -1.000000000000000000 ) ) ;
#121 = AXIS2_PLACEMENT_3D ( 'NONE', #73, #137, #202 ) ;
#122 = PRODUCT_DEFINITION_SHAPE ( 'NONE', 'NONE',  #124 ) ;
#123 = AXIS2_PLACEMENT_3D ( 'NONE', #117, #39, #168 ) ;
#124 = PRODUCT_DEFINITION ( 'UNKNOWN', '', #100, #173 ) ;
#125 = FACE_OUTER_BOUND ( 'NONE', #200, .T. ) ;
#126 = PERSON_AND_ORGANIZATION ( #38, #190 ) ;
#127 = PERSON_AND_ORGANIZATION ( #38, #190 ) ;
#128 = CARTESIAN_POINT ( 'NONE',  ( 1.326762908760390423E-13, -4.653657836759941941E-15, 38.00000000000000000 ) ) ;
#129 = CIRCLE ( 'NONE', #123, 1.000000000000000888 ) ;
#130 = EDGE_LOOP ( 'NONE', ( #49 ) ) ;
#131 = APPLICATION_PROTOCOL_DEFINITION ( 'international standard', 'config_control_design', 1994, #10 ) ;
#132 = DIRECTION ( 'NONE',  ( 4.531599869146444411E-31, 1.000000000000000000, 1.275531967630007218E-16 ) ) ;
#133 = DIRECTION ( 'NONE',  ( 3.491481338843133355E-15, -1.224646799147353207E-16, 1.000000000000000000 ) ) ;
#134 = AXIS2_PLACEMENT_3D ( 'NONE', #74, #120, #102 ) ;
#135 = DIRECTION ( 'NONE',  ( 3.491481338843133355E-15, -1.224646799147353207E-16, 1.000000000000000000 ) ) ;
#136 = DATE_AND_TIME ( #188, #157 ) ;
#137 = DIRECTION ( 'NONE',  ( -3.491481338843133355E-15, 1.224646799147353207E-16, -1.000000000000000000 ) ) ;
#138 = APPROVAL ( #177, 'UNSPECIFIED' ) ;
#139 = EDGE_LOOP ( 'NONE', ( #65 ) ) ;
#140 = PERSON_AND_ORGANIZATION_ROLE ( 'design_owner' ) ;
#141 = CARTESIAN_POINT ( 'NONE',  ( 1.326762908760390423E-13, -4.653657836759941941E-15, 38.00000000000000000 ) ) ;
#142 = AXIS2_PLACEMENT_3D ( 'NONE', #186, #135, #223 ) ;
#143 = CARTESIAN_POINT ( 'NONE',  ( 0.0000000000000000000, 0.0000000000000000000, 0.0000000000000000000 ) ) ;
#144 = DIRECTION ( 'NONE',  ( -3.491481338843133355E-15, 1.224646799147353207E-16, -1.000000000000000000 ) ) ;
#145 = VERTEX_POINT ( 'NONE', #181 ) ;
#146 =( LENGTH_UNIT ( ) NAMED_UNIT ( * ) SI_UNIT ( .MILLI., .METRE. ) );
#147 = ADVANCED_FACE ( 'NONE', ( #153 ), #72, .F. ) ;
#148 = CONICAL_SURFACE ( 'NONE', #43, 0.9999999999999978906, 0.5235987755982879355 ) ;
#149 = DATE_TIME_ROLE ( 'classification_date' ) ;
#150 = FACE_OUTER_BOUND ( 'NONE', #95, .T. ) ;
#151 = MANIFOLD_SOLID_BREP ( 'Corps-Déplacer/Copier1[1]', #99 ) ;
#152 = SHAPE_DEFINITION_REPRESENTATION ( #122, #8 ) ;
#153 = FACE_OUTER_BOUND ( 'NONE', #51, .T. ) ;
#154 = APPROVAL ( #81, 'UNSPECIFIED' ) ;
#155 = AXIS2_PLACEMENT_3D ( 'NONE', #165, #167, #26 ) ;
#156 = VERTEX_POINT ( 'NONE', #55 ) ;
#157 = LOCAL_TIME ( 7, 53, 43.00000000000000000, #4 ) ;
#158 =( GEOMETRIC_REPRESENTATION_CONTEXT ( 3 ) GLOBAL_UNCERTAINTY_ASSIGNED_CONTEXT ( ( #47 ) ) GLOBAL_UNIT_ASSIGNED_CONTEXT ( ( #146, #217, #34 ) ) REPRESENTATION_CONTEXT ( 'NONE', 'WORKASPACE' ) );
#159 = ORIENTED_EDGE ( 'NONE', *, *, #44, .T. ) ;
#160 = ORIENTED_EDGE ( 'NONE', *, *, #17, .F. ) ;
#161 = CALENDAR_DATE ( 2021, 8, 10 ) ;
#162 = ORIENTED_EDGE ( 'NONE', *, *, #17, .T. ) ;
#163 = CALENDAR_DATE ( 2021, 8, 10 ) ;
#164 = DIRECTION ( 'NONE',  ( 3.491481338843133355E-15, -1.224646799147353207E-16, 1.000000000000000000 ) ) ;
#165 = CARTESIAN_POINT ( 'NONE',  ( 0.0000000000000000000, 0.0000000000000000000, 0.0000000000000000000 ) ) ;
#166 = APPROVAL_ROLE ( '' ) ;
#167 = DIRECTION ( 'NONE',  ( -3.491481338843133355E-15, 1.224646799147353207E-16, -1.000000000000000000 ) ) ;
#168 = DIRECTION ( 'NONE',  ( 0.0000000000000000000, 1.000000000000000000, 0.0000000000000000000 ) ) ;
#169 = PRODUCT ( '191', '191', '', ( #93 ) ) ;
#170 = AXIS2_PLACEMENT_3D ( 'NONE', #112, #79, #32 ) ;
#171 = EDGE_CURVE ( 'NONE', #145, #145, #129, .T. ) ;
#172 = CONICAL_SURFACE ( 'NONE', #80, 0.8000000000000009326, 0.7853981633974512766 ) ;
#174 = ADVANCED_FACE ( 'NONE', ( #221 ), #31, .T. ) ;
#173 = DESIGN_CONTEXT ( 'detailed design', #10, 'design' ) ;
#175 = DATE_AND_TIME ( #163, #108 ) ;
#176 = DIRECTION ( 'NONE',  ( -3.491481338843133355E-15, 1.224646799147353207E-16, -1.000000000000000000 ) ) ;
#177 = APPROVAL_STATUS ( 'not_yet_approved' ) ;
#178 = CIRCLE ( 'NONE', #46, 0.8499999999999986455 ) ;
#179 = PERSON_AND_ORGANIZATION ( #38, #190 ) ;
#180 = ORIENTED_EDGE ( 'NONE', *, *, #52, .T. ) ;
#181 = CARTESIAN_POINT ( 'NONE',  ( 1.319779946082704535E-13, 0.9999999999999963363, 37.79999999999999716 ) ) ;
#182 = EDGE_LOOP ( 'NONE', ( #29 ) ) ;
#183 = FACE_OUTER_BOUND ( 'NONE', #71, .T. ) ;
#184 = APPROVAL_DATE_TIME ( #136, #21 ) ;
#185 = DIRECTION ( 'NONE',  ( 0.0000000000000000000, -1.000000000000000000, 0.0000000000000000000 ) ) ;
#186 = CARTESIAN_POINT ( 'NONE',  ( 4.189777606611760026E-14, 6.373979076312878412E-33, 12.00000000000000000 ) ) ;
#187 = PLANE ( 'NONE',  #142 ) ;
#188 = CALENDAR_DATE ( 2021, 8, 10 ) ;
#189 = CC_DESIGN_APPROVAL ( #154, ( #100 ) ) ;
#190 = ORGANIZATION ( 'UNSPECIFIED', 'UNSPECIFIED', '' ) ;
#191 = ADVANCED_FACE ( 'NONE', ( #203, #183 ), #1, .T. ) ;
#192 = CC_DESIGN_DATE_AND_TIME_ASSIGNMENT ( #58, #149, ( #67 ) ) ;
#193 = PERSON_AND_ORGANIZATION_ROLE ( 'classification_officer' ) ;
#194 = PERSON_AND_ORGANIZATION ( #38, #190 ) ;
#195 = ORIENTED_EDGE ( 'NONE', *, *, #64, .T. ) ;
#196 = CARTESIAN_POINT ( 'NONE',  ( 4.189777606611760026E-14, 0.8499999999999992006, 12.00000000000000000 ) ) ;
#197 = ADVANCED_FACE ( 'NONE', ( #88, #150 ), #148, .T. ) ;
#198 = DIRECTION ( 'NONE',  ( 0.0000000000000000000, 1.000000000000000000, 0.0000000000000000000 ) ) ;
#199 = COORDINATED_UNIVERSAL_TIME_OFFSET ( 1, 0, .AHEAD. ) ;
#200 = EDGE_LOOP ( 'NONE', ( #214 ) ) ;
#201 = PERSON_AND_ORGANIZATION ( #38, #190 ) ;
#202 = DIRECTION ( 'NONE',  ( 4.275831445896958607E-31, 1.000000000000000000, 1.224646799147353207E-16 ) ) ;
#203 = FACE_OUTER_BOUND ( 'NONE', #139, .T. ) ;
#204 = LOCAL_TIME ( 7, 53, 43.00000000000000000, #48 ) ;
#205 = VERTEX_POINT ( 'NONE', #61 ) ;
#206 = PRODUCT_RELATED_PRODUCT_CATEGORY ( 'detail', '', ( #169 ) ) ;
#207 = AXIS2_PLACEMENT_3D ( 'NONE', #143, #213, #78 ) ;
#208 = DATE_AND_TIME ( #161, #89 ) ;
#209 = AXIS2_PLACEMENT_3D ( 'NONE', #141, #176, #30 ) ;
#210 = CC_DESIGN_SECURITY_CLASSIFICATION ( #67, ( #100 ) ) ;
#211 = EDGE_LOOP ( 'NONE', ( #111 ) ) ;
#212 = CC_DESIGN_APPROVAL ( #138, ( #124 ) ) ;
#213 = DIRECTION ( 'NONE',  ( 0.0000000000000000000, 0.0000000000000000000, 1.000000000000000000 ) ) ;
#214 = ORIENTED_EDGE ( 'NONE', *, *, #171, .T. ) ;
#215 = APPROVAL_DATE_TIME ( #175, #138 ) ;
#216 = EDGE_LOOP ( 'NONE', ( #97 ) ) ;
#217 =( NAMED_UNIT ( * ) PLANE_ANGLE_UNIT ( ) SI_UNIT ( $, .RADIAN. ) );
#218 = ORIENTED_EDGE ( 'NONE', *, *, #171, .F. ) ;
#219 = APPROVAL_PERSON_ORGANIZATION ( #6, #21, #166 ) ;
#220 = EDGE_CURVE ( 'NONE', #84, #84, #178, .T. ) ;
#221 = FACE_OUTER_BOUND ( 'NONE', #216, .T. ) ;
#222 = CC_DESIGN_DATE_AND_TIME_ASSIGNMENT ( #208, #116, ( #124 ) ) ;
#223 = DIRECTION ( 'NONE',  ( -4.275831445896958607E-31, -1.000000000000000000, -1.224646799147353207E-16 ) ) ;
ENDSEC;
END-ISO-10303-21;
