ISO-10303-21;
HEADER;
FILE_DESCRIPTION (( 'STEP AP203' ),
    '1' );
FILE_NAME ('188.step',
    '2021-10-08T05:53:42',
    ( '' ),
    ( '' ),
    'SwSTEP 2.0',
    'SolidWorks 2019',
    '' );
FILE_SCHEMA (( 'CONFIG_CONTROL_DESIGN' ));
ENDSEC;

DATA;
#1 = DIRECTION ( 'NONE',  ( 0.0000000000000000000, 1.000000000000000000, 0.0000000000000000000 ) ) ;
#2 = FACE_BOUND ( 'NONE', #157, .T. ) ;
#3 = DIRECTION ( 'NONE',  ( 3.491481338843133355E-15, -1.224646799147353207E-16, 1.000000000000000000 ) ) ;
#4 = DIRECTION ( 'NONE',  ( -3.491481338843133355E-15, 1.224646799147353207E-16, -1.000000000000000000 ) ) ;
#5 = AXIS2_PLACEMENT_3D ( 'NONE', #47, #137, #133 ) ;
#6 = CC_DESIGN_SECURITY_CLASSIFICATION ( #132, ( #42 ) ) ;
#7 = DIRECTION ( 'NONE',  ( 3.491481338843133355E-15, -1.224646799147353207E-16, 1.000000000000000000 ) ) ;
#8 = UNCERTAINTY_MEASURE_WITH_UNIT (LENGTH_MEASURE( 1.000000000000000082E-05 ), #43, 'distance_accuracy_value', 'NONE');
#9 = APPROVAL_STATUS ( 'not_yet_approved' ) ;
#10 = LOCAL_TIME ( 7, 53, 42.00000000000000000, #50 ) ;
#11 = CARTESIAN_POINT ( 'NONE',  ( 3.910459099504309989E-14, 0.6999999999999984013, 11.20000000000000107 ) ) ;
#12 = PERSON_AND_ORGANIZATION ( #90, #162 ) ;
#13 = EDGE_LOOP ( 'NONE', ( #15 ) ) ;
#14 = DATE_AND_TIME ( #16, #10 ) ;
#15 = ORIENTED_EDGE ( 'NONE', *, *, #173, .T. ) ;
#16 = CALENDAR_DATE ( 2021, 8, 10 ) ;
#17 = ORIENTED_EDGE ( 'NONE', *, *, #74, .T. ) ;
#18 = PERSON_AND_ORGANIZATION ( #90, #162 ) ;
#19 = FACE_OUTER_BOUND ( 'NONE', #33, .T. ) ;
#20 = FACE_OUTER_BOUND ( 'NONE', #188, .T. ) ;
#21 = CARTESIAN_POINT ( 'NONE',  ( 1.047444401652940007E-13, 4.124339402320052999E-33, 30.00000000000000000 ) ) ;
#22 = ADVANCED_FACE ( 'NONE', ( #110 ), #197, .F. ) ;
#23 = DIRECTION ( 'NONE',  ( -3.491481338843133355E-15, 1.224646799147353207E-16, -1.000000000000000000 ) ) ;
#24 = DIRECTION ( 'NONE',  ( 0.0000000000000000000, 1.000000000000000000, 0.0000000000000000000 ) ) ;
#25 = ADVANCED_FACE ( 'NONE', ( #195, #2 ), #113, .T. ) ;
#26 = APPLICATION_PROTOCOL_DEFINITION ( 'international standard', 'config_control_design', 1994, #165 ) ;
#27 = APPROVAL_STATUS ( 'not_yet_approved' ) ;
#28 = CALENDAR_DATE ( 2021, 8, 10 ) ;
#29 = PERSON_AND_ORGANIZATION ( #90, #162 ) ;
#30 = AXIS2_PLACEMENT_3D ( 'NONE', #147, #164, #94 ) ;
#31 = AXIS2_PLACEMENT_3D ( 'NONE', #34, #4, #24 ) ;
#32 = AXIS2_PLACEMENT_3D ( 'NONE', #69, #126, #53 ) ;
#33 = EDGE_LOOP ( 'NONE', ( #170 ) ) ;
#34 = CARTESIAN_POINT ( 'NONE',  ( 3.940696214867082508E-14, -1.382210167432284180E-15, 11.28660254037843913 ) ) ;
#35 = FACE_OUTER_BOUND ( 'NONE', #13, .T. ) ;
#36 = CLOSED_SHELL ( 'NONE', ( #60, #182, #97 ) ) ;
#37 = DIRECTION ( 'NONE',  ( -3.491481338843133355E-15, 1.224646799147353207E-16, -1.000000000000000000 ) ) ;
#38 = DIRECTION ( 'NONE',  ( -5.502656983963540142E-31, -1.000000000000000000, -1.548860246407866048E-16 ) ) ;
#39 = ADVANCED_FACE ( 'NONE', ( #20, #207 ), #179, .T. ) ;
#40 = APPLICATION_CONTEXT ( 'configuration controlled 3d designs of mechanical parts and assemblies' ) ;
#41 = DIRECTION ( 'NONE',  ( 5.502656983963540142E-31, 1.000000000000000000, 1.548860246407866048E-16 ) ) ;
#42 = PRODUCT_DEFINITION_FORMATION_WITH_SPECIFIED_SOURCE ( 'ANY', '', #80, .NOT_KNOWN. ) ;
#43 =( LENGTH_UNIT ( ) NAMED_UNIT ( * ) SI_UNIT ( .MILLI., .METRE. ) );
#44 = CARTESIAN_POINT ( 'NONE',  ( 1.411065383596160600E-15, 0.6999999999999988454, 0.4041451884327420530 ) ) ;
#45 =( NAMED_UNIT ( * ) SI_UNIT ( $, .STERADIAN. ) SOLID_ANGLE_UNIT ( ) );
#46 =( NAMED_UNIT ( * ) PLANE_ANGLE_UNIT ( ) SI_UNIT ( $, .RADIAN. ) );
#47 = CARTESIAN_POINT ( 'NONE',  ( 0.0000000000000000000, 0.0000000000000000000, 0.0000000000000000000 ) ) ;
#48 = EDGE_LOOP ( 'NONE', ( #17 ) ) ;
#49 = PERSON_AND_ORGANIZATION ( #90, #162 ) ;
#50 = COORDINATED_UNIVERSAL_TIME_OFFSET ( 1, 0, .AHEAD. ) ;
#51 = DIRECTION ( 'NONE',  ( 3.491481338843133355E-15, -1.224646799147353207E-16, 1.000000000000000000 ) ) ;
#52 = APPROVAL ( #87, 'UNSPECIFIED' ) ;
#53 = DIRECTION ( 'NONE',  ( 0.0000000000000000000, 1.000000000000000000, 0.0000000000000000000 ) ) ;
#54 = DIRECTION ( 'NONE',  ( 3.491481338843133355E-15, -1.224646799147353207E-16, 1.000000000000000000 ) ) ;
#55 = CARTESIAN_POINT ( 'NONE',  ( 1.411065383596160205E-15, -4.949351114049613509E-17, 0.4041451884327419419 ) ) ;
#56 = AXIS2_PLACEMENT_3D ( 'NONE', #158, #68, #1 ) ;
#57 = APPROVAL ( #9, 'UNSPECIFIED' ) ;
#58 = DIRECTION ( 'NONE',  ( -3.491481338843133355E-15, 1.224646799147353207E-16, -1.000000000000000000 ) ) ;
#59 = CARTESIAN_POINT ( 'NONE',  ( 3.910459099504309989E-14, 0.6999999999999984013, 11.20000000000000107 ) ) ;
#60 = ADVANCED_FACE ( 'NONE', ( #35 ), #218, .T. ) ;
#61 = ORIENTED_EDGE ( 'NONE', *, *, #193, .F. ) ;
#62 = ORIENTED_EDGE ( 'NONE', *, *, #214, .F. ) ;
#63 = AXIS2_PLACEMENT_3D ( 'NONE', #75, #153, #160 ) ;
#64 = PERSON_AND_ORGANIZATION_ROLE ( 'design_owner' ) ;
#65 = ORIENTED_EDGE ( 'NONE', *, *, #196, .T. ) ;
#66 = ORIENTED_EDGE ( 'NONE', *, *, #74, .F. ) ;
#67 = MANIFOLD_SOLID_BREP ( 'Corps-Déplacer/Copier1[2]', #36 ) ;
#68 = DIRECTION ( 'NONE',  ( -3.491481338843133355E-15, 1.224646799147353207E-16, -1.000000000000000000 ) ) ;
#69 = CARTESIAN_POINT ( 'NONE',  ( 1.040461438975253740E-13, -3.649447461459112464E-15, 29.80000000000000071 ) ) ;
#70 = ORIENTED_EDGE ( 'NONE', *, *, #93, .T. ) ;
#71 = AXIS2_PLACEMENT_3D ( 'NONE', #129, #3, #145 ) ;
#72 = DIRECTION ( 'NONE',  ( 4.275831445896957731E-31, 1.000000000000000000, 1.224646799147352961E-16 ) ) ;
#73 = LOCAL_TIME ( 7, 53, 42.00000000000000000, #117 ) ;
#74 = EDGE_CURVE ( 'NONE', #100, #100, #142, .T. ) ;
#75 = CARTESIAN_POINT ( 'NONE',  ( 3.910459099504309989E-14, -1.371604415045035710E-15, 11.20000000000000107 ) ) ;
#76 = DATE_TIME_ROLE ( 'creation_date' ) ;
#77 = DATE_AND_TIME ( #28, #73 ) ;
#78 = AXIS2_PLACEMENT_3D ( 'NONE', #194, #161, #72 ) ;
#79 = CC_DESIGN_DATE_AND_TIME_ASSIGNMENT ( #144, #176, ( #132 ) ) ;
#80 = PRODUCT ( '188', '188', '', ( #130 ) ) ;
#81 = VERTEX_POINT ( 'NONE', #11 ) ;
#82 = ADVANCED_FACE ( 'NONE', ( #19 ), #216, .F. ) ;
#83 = CIRCLE ( 'NONE', #56, 0.5500000000000000444 ) ;
#84 = ORIENTED_EDGE ( 'NONE', *, *, #173, .F. ) ;
#85 = APPROVAL_ROLE ( '' ) ;
#86 = APPROVAL_PERSON_ORGANIZATION ( #185, #57, #154 ) ;
#87 = APPROVAL_STATUS ( 'not_yet_approved' ) ;
#88 = DIRECTION ( 'NONE',  ( 0.0000000000000000000, 1.000000000000000000, 0.0000000000000000000 ) ) ;
#89 = CARTESIAN_POINT ( 'NONE',  ( 3.940696214867082508E-14, -1.382210167432284180E-15, 11.28660254037843913 ) ) ;
#90 = PERSON ( 'UNSPECIFIED', 'UNSPECIFIED', 'UNSPECIFIED', ('UNSPECIFIED'), ('UNSPECIFIED'), ('UNSPECIFIED') ) ;
#91 = CC_DESIGN_PERSON_AND_ORGANIZATION_ASSIGNMENT ( #166, #98, ( #212 ) ) ;
#92 = CIRCLE ( 'NONE', #32, 0.7500000000000000000 ) ;
#93 = EDGE_CURVE ( 'NONE', #116, #116, #92, .T. ) ;
#94 = DIRECTION ( 'NONE',  ( 4.275831445896959482E-31, 1.000000000000000000, 1.224646799147353207E-16 ) ) ;
#95 = APPROVAL_PERSON_ORGANIZATION ( #12, #52, #85 ) ;
#96 = CALENDAR_DATE ( 2021, 8, 10 ) ;
#97 = ADVANCED_FACE ( 'NONE', ( #180 ), #200, .T. ) ;
#98 = PERSON_AND_ORGANIZATION_ROLE ( 'creator' ) ;
#99 = PERSON_AND_ORGANIZATION ( #90, #162 ) ;
#100 = VERTEX_POINT ( 'NONE', #59 ) ;
#101 = AXIS2_PLACEMENT_3D ( 'NONE', #55, #58, #41 ) ;
#102 = EDGE_LOOP ( 'NONE', ( #203 ) ) ;
#103 = COORDINATED_UNIVERSAL_TIME_OFFSET ( 1, 0, .AHEAD. ) ;
#104 = EDGE_LOOP ( 'NONE', ( #175 ) ) ;
#105 = CC_DESIGN_DATE_AND_TIME_ASSIGNMENT ( #167, #76, ( #212 ) ) ;
#106 = DIRECTION ( 'NONE',  ( -3.491481338843133355E-15, 1.224646799147353207E-16, -1.000000000000000000 ) ) ;
#107 = CARTESIAN_POINT ( 'NONE',  ( 3.910459099504309989E-14, -2.071931959867602494E-31, 11.20000000000000107 ) ) ;
#108 = ADVANCED_BREP_SHAPE_REPRESENTATION ( '188', ( #151, #67, #5 ), #178 ) ;
#109 = CARTESIAN_POINT ( 'NONE',  ( 1.411065383596160205E-15, -4.949351114049613509E-17, 0.4041451884327419419 ) ) ;
#110 = FACE_OUTER_BOUND ( 'NONE', #205, .T. ) ;
#111 = LOCAL_TIME ( 7, 53, 42.00000000000000000, #189 ) ;
#112 = FACE_OUTER_BOUND ( 'NONE', #138, .T. ) ;
#113 = CONICAL_SURFACE ( 'NONE', #131, 0.5500000000000000444, 0.7853981633974512766 ) ;
#114 = APPROVAL_PERSON_ORGANIZATION ( #186, #220, #120 ) ;
#115 = COORDINATED_UNIVERSAL_TIME_OFFSET ( 1, 0, .AHEAD. ) ;
#116 = VERTEX_POINT ( 'NONE', #156 ) ;
#117 = COORDINATED_UNIVERSAL_TIME_OFFSET ( 1, 0, .AHEAD. ) ;
#118 = CARTESIAN_POINT ( 'NONE',  ( 1.047444401652940007E-13, 0.5499999999999963807, 30.00000000000000000 ) ) ;
#119 = EDGE_LOOP ( 'NONE', ( #70 ) ) ;
#120 = APPROVAL_ROLE ( '' ) ;
#121 = EDGE_LOOP ( 'NONE', ( #62 ) ) ;
#122 = LOCAL_TIME ( 7, 53, 42.00000000000000000, #115 ) ;
#123 = CC_DESIGN_PERSON_AND_ORGANIZATION_ASSIGNMENT ( #18, #124, ( #132 ) ) ;
#124 = PERSON_AND_ORGANIZATION_ROLE ( 'classification_officer' ) ;
#125 = DIRECTION ( 'NONE',  ( 0.0000000000000000000, -1.000000000000000000, 0.0000000000000000000 ) ) ;
#126 = DIRECTION ( 'NONE',  ( -3.491481338843133355E-15, 1.224646799147353207E-16, -1.000000000000000000 ) ) ;
#127 = FACE_OUTER_BOUND ( 'NONE', #104, .T. ) ;
#128 = AXIS2_PLACEMENT_3D ( 'NONE', #143, #106, #177 ) ;
#129 = CARTESIAN_POINT ( 'NONE',  ( 3.910459099504309989E-14, -2.071931959867602494E-31, 11.20000000000000107 ) ) ;
#130 = MECHANICAL_CONTEXT ( 'NONE', #165, 'mechanical' ) ;
#131 = AXIS2_PLACEMENT_3D ( 'NONE', #210, #23, #88 ) ;
#132 = SECURITY_CLASSIFICATION ( '', '', #209 ) ;
#133 = DIRECTION ( 'NONE',  ( 1.000000000000000000, 0.0000000000000000000, 0.0000000000000000000 ) ) ;
#134 = APPLICATION_PROTOCOL_DEFINITION ( 'international standard', 'config_control_design', 1994, #40 ) ;
#135 = CC_DESIGN_PERSON_AND_ORGANIZATION_ASSIGNMENT ( #29, #64, ( #80 ) ) ;
#136 = PRODUCT_DEFINITION_SHAPE ( 'NONE', 'NONE',  #212 ) ;
#137 = DIRECTION ( 'NONE',  ( 0.0000000000000000000, 0.0000000000000000000, 1.000000000000000000 ) ) ;
#138 = EDGE_LOOP ( 'NONE', ( #84 ) ) ;
#139 = VERTEX_POINT ( 'NONE', #44 ) ;
#140 = CLOSED_SHELL ( 'NONE', ( #22, #150, #39, #25, #82 ) ) ;
#141 = ORIENTED_EDGE ( 'NONE', *, *, #214, .T. ) ;
#142 = CIRCLE ( 'NONE', #63, 0.6999999999999997335 ) ;
#143 = CARTESIAN_POINT ( 'NONE',  ( 3.910459099504309989E-14, -1.371604415045035710E-15, 11.20000000000000107 ) ) ;
#144 = DATE_AND_TIME ( #223, #215 ) ;
#145 = DIRECTION ( 'NONE',  ( -4.275831445896958607E-31, -1.000000000000000000, -1.224646799147353207E-16 ) ) ;
#146 = PRODUCT_RELATED_PRODUCT_CATEGORY ( 'detail', '', ( #80 ) ) ;
#147 = CARTESIAN_POINT ( 'NONE',  ( 0.0000000000000000000, 0.0000000000000000000, 0.0000000000000000000 ) ) ;
#148 = CC_DESIGN_APPROVAL ( #57, ( #42 ) ) ;
#149 = FACE_BOUND ( 'NONE', #121, .T. ) ;
#150 = ADVANCED_FACE ( 'NONE', ( #149, #127 ), #217, .T. ) ;
#151 = MANIFOLD_SOLID_BREP ( 'Corps-Déplacer/Copier1[1]', #140 ) ;
#152 = AXIS2_PLACEMENT_3D ( 'NONE', #107, #51, #181 ) ;
#153 = DIRECTION ( 'NONE',  ( -3.491481338843133355E-15, 1.224646799147353207E-16, -1.000000000000000000 ) ) ;
#154 = APPROVAL_ROLE ( '' ) ;
#155 = DATE_AND_TIME ( #202, #122 ) ;
#156 = CARTESIAN_POINT ( 'NONE',  ( 1.040461438975253740E-13, 0.7499999999999963363, 29.80000000000000071 ) ) ;
#157 = EDGE_LOOP ( 'NONE', ( #65 ) ) ;
#158 = CARTESIAN_POINT ( 'NONE',  ( 1.047444401652940007E-13, -3.673940397442059178E-15, 30.00000000000000000 ) ) ;
#159 = AXIS2_PLACEMENT_3D ( 'NONE', #89, #54, #125 ) ;
#160 = DIRECTION ( 'NONE',  ( 0.0000000000000000000, 1.000000000000000000, 0.0000000000000000000 ) ) ;
#161 = DIRECTION ( 'NONE',  ( -3.491481338843133355E-15, 1.224646799147353207E-16, -1.000000000000000000 ) ) ;
#162 = ORGANIZATION ( 'UNSPECIFIED', 'UNSPECIFIED', '' ) ;
#163 = CC_DESIGN_APPROVAL ( #52, ( #132 ) ) ;
#164 = DIRECTION ( 'NONE',  ( -3.491481338843133355E-15, 1.224646799147353207E-16, -1.000000000000000000 ) ) ;
#165 = APPLICATION_CONTEXT ( 'configuration controlled 3d designs of mechanical parts and assemblies' ) ;
#166 = PERSON_AND_ORGANIZATION ( #90, #162 ) ;
#167 = DATE_AND_TIME ( #96, #111 ) ;
#168 = PERSON_AND_ORGANIZATION_ROLE ( 'creator' ) ;
#169 = CC_DESIGN_PERSON_AND_ORGANIZATION_ASSIGNMENT ( #49, #171, ( #42 ) ) ;
#170 = ORIENTED_EDGE ( 'NONE', *, *, #196, .F. ) ;
#171 = PERSON_AND_ORGANIZATION_ROLE ( 'design_supplier' ) ;
#172 = CIRCLE ( 'NONE', #31, 0.7499999999999977796 ) ;
#173 = EDGE_CURVE ( 'NONE', #139, #139, #201, .T. ) ;
#174 = EDGE_LOOP ( 'NONE', ( #66 ) ) ;
#175 = ORIENTED_EDGE ( 'NONE', *, *, #193, .T. ) ;
#176 = DATE_TIME_ROLE ( 'classification_date' ) ;
#177 = DIRECTION ( 'NONE',  ( 0.0000000000000000000, 1.000000000000000000, 0.0000000000000000000 ) ) ;
#178 =( GEOMETRIC_REPRESENTATION_CONTEXT ( 3 ) GLOBAL_UNCERTAINTY_ASSIGNED_CONTEXT ( ( #8 ) ) GLOBAL_UNIT_ASSIGNED_CONTEXT ( ( #43, #46, #45 ) ) REPRESENTATION_CONTEXT ( 'NONE', 'WORKASPACE' ) );
#179 = CYLINDRICAL_SURFACE ( 'NONE', #30, 0.7499999999999988898 ) ;
#180 = FACE_OUTER_BOUND ( 'NONE', #174, .T. ) ;
#181 = DIRECTION ( 'NONE',  ( -4.275831445896958607E-31, -1.000000000000000000, -1.224646799147353207E-16 ) ) ;
#182 = ADVANCED_FACE ( 'NONE', ( #112, #213 ), #184, .T. ) ;
#183 = CIRCLE ( 'NONE', #128, 0.6999999999999997335 ) ;
#184 = CYLINDRICAL_SURFACE ( 'NONE', #78, 0.6999999999999992895 ) ;
#185 = PERSON_AND_ORGANIZATION ( #90, #162 ) ;
#186 = PERSON_AND_ORGANIZATION ( #90, #162 ) ;
#187 = CARTESIAN_POINT ( 'NONE',  ( 3.940696214867082508E-14, 0.7499999999999963363, 11.28660254037843913 ) ) ;
#188 = EDGE_LOOP ( 'NONE', ( #61 ) ) ;
#189 = COORDINATED_UNIVERSAL_TIME_OFFSET ( 1, 0, .AHEAD. ) ;
#190 = APPROVAL_DATE_TIME ( #14, #52 ) ;
#191 = SHAPE_DEFINITION_REPRESENTATION ( #136, #108 ) ;
#192 = DIRECTION ( 'NONE',  ( 4.275831445896958607E-31, 1.000000000000000000, 1.224646799147353207E-16 ) ) ;
#193 = EDGE_CURVE ( 'NONE', #206, #206, #172, .T. ) ;
#194 = CARTESIAN_POINT ( 'NONE',  ( 0.0000000000000000000, 0.0000000000000000000, 0.0000000000000000000 ) ) ;
#195 = FACE_OUTER_BOUND ( 'NONE', #102, .T. ) ;
#196 = EDGE_CURVE ( 'NONE', #222, #222, #83, .T. ) ;
#197 = PLANE ( 'NONE',  #152 ) ;
#198 = AXIS2_PLACEMENT_3D ( 'NONE', #21, #37, #192 ) ;
#199 = DESIGN_CONTEXT ( 'detailed design', #40, 'design' ) ;
#200 = PLANE ( 'NONE',  #71 ) ;
#201 = CIRCLE ( 'NONE', #101, 0.6999999999999988454 ) ;
#202 = CALENDAR_DATE ( 2021, 8, 10 ) ;
#203 = ORIENTED_EDGE ( 'NONE', *, *, #93, .F. ) ;
#204 = APPROVAL_DATE_TIME ( #155, #220 ) ;
#205 = EDGE_LOOP ( 'NONE', ( #141 ) ) ;
#206 = VERTEX_POINT ( 'NONE', #187 ) ;
#207 = FACE_OUTER_BOUND ( 'NONE', #119, .T. ) ;
#208 = CC_DESIGN_PERSON_AND_ORGANIZATION_ASSIGNMENT ( #99, #168, ( #42 ) ) ;
#209 = SECURITY_CLASSIFICATION_LEVEL ( 'unclassified' ) ;
#210 = CARTESIAN_POINT ( 'NONE',  ( 1.047444401652940007E-13, -3.673940397442059178E-15, 30.00000000000000000 ) ) ;
#211 = CC_DESIGN_APPROVAL ( #220, ( #212 ) ) ;
#212 = PRODUCT_DEFINITION ( 'UNKNOWN', '', #42, #199 ) ;
#213 = FACE_OUTER_BOUND ( 'NONE', #48, .T. ) ;
#214 = EDGE_CURVE ( 'NONE', #81, #81, #183, .T. ) ;
#215 = LOCAL_TIME ( 7, 53, 42.00000000000000000, #103 ) ;
#216 = PLANE ( 'NONE',  #198 ) ;
#217 = CONICAL_SURFACE ( 'NONE', #159, 0.7499999999999977796, 0.5235987755983103620 ) ;
#218 = CONICAL_SURFACE ( 'NONE', #221, 0.6999999999999988454, 1.047197551196592746 ) ;
#219 = APPROVAL_DATE_TIME ( #77, #57 ) ;
#220 = APPROVAL ( #27, 'UNSPECIFIED' ) ;
#221 = AXIS2_PLACEMENT_3D ( 'NONE', #109, #7, #38 ) ;
#222 = VERTEX_POINT ( 'NONE', #118 ) ;
#223 = CALENDAR_DATE ( 2021, 8, 10 ) ;
ENDSEC;
END-ISO-10303-21;
