ISO-10303-21;
HEADER;
FILE_DESCRIPTION (( 'STEP AP203' ),
    '1' );
FILE_NAME ('187.step',
    '2021-10-08T05:53:42',
    ( '' ),
    ( '' ),
    'SwSTEP 2.0',
    'SolidWorks 2019',
    '' );
FILE_SCHEMA (( 'CONFIG_CONTROL_DESIGN' ));
ENDSEC;

DATA;
#1 = DIRECTION ( 'NONE',  ( -4.275831445896958607E-31, -1.000000000000000000, -1.224646799147353207E-16 ) ) ;
#2 = CC_DESIGN_APPROVAL ( #200, ( #101 ) ) ;
#3 = DIRECTION ( 'NONE',  ( -4.275831445896958607E-31, -1.000000000000000000, -1.224646799147353207E-16 ) ) ;
#4 = CARTESIAN_POINT ( 'NONE',  ( 3.491481338843133355E-14, 4.874219293651018751E-33, 10.00000000000000000 ) ) ;
#5 = DIRECTION ( 'NONE',  ( -3.491481338843133355E-15, 1.224646799147353207E-16, -1.000000000000000000 ) ) ;
#6 = FACE_OUTER_BOUND ( 'NONE', #206, .T. ) ;
#7 = DIRECTION ( 'NONE',  ( 0.0000000000000000000, 1.000000000000000000, 0.0000000000000000000 ) ) ;
#8 = CARTESIAN_POINT ( 'NONE',  ( 3.551955569568681549E-14, -1.245858303921850986E-15, 10.17320508075688501 ) ) ;
#9 = CC_DESIGN_PERSON_AND_ORGANIZATION_ASSIGNMENT ( #202, #65, ( #42 ) ) ;
#10 = LOCAL_TIME ( 7, 53, 42.00000000000000000, #220 ) ;
#11 = DIRECTION ( 'NONE',  ( -3.491481338843133355E-15, 1.224646799147353207E-16, -1.000000000000000000 ) ) ;
#12 = CARTESIAN_POINT ( 'NONE',  ( 3.491481338843133355E-14, -1.224646799147353256E-15, 10.00000000000000000 ) ) ;
#13 = APPROVAL_DATE_TIME ( #136, #63 ) ;
#14 = CC_DESIGN_SECURITY_CLASSIFICATION ( #122, ( #101 ) ) ;
#15 = MECHANICAL_CONTEXT ( 'NONE', #21, 'mechanical' ) ;
#16 = PERSON_AND_ORGANIZATION_ROLE ( 'creator' ) ;
#17 = ADVANCED_FACE ( 'NONE', ( #108 ), #177, .F. ) ;
#18 = CC_DESIGN_APPROVAL ( #118, ( #122 ) ) ;
#19 = PLANE ( 'NONE',  #132 ) ;
#20 = DIRECTION ( 'NONE',  ( 4.275831445896959482E-31, 1.000000000000000000, 1.224646799147353207E-16 ) ) ;
#21 = APPLICATION_CONTEXT ( 'configuration controlled 3d designs of mechanical parts and assemblies' ) ;
#22 = ORGANIZATION ( 'UNSPECIFIED', 'UNSPECIFIED', '' ) ;
#23 = DIRECTION ( 'NONE',  ( 0.0000000000000000000, 1.000000000000000000, 0.0000000000000000000 ) ) ;
#24 = ORIENTED_EDGE ( 'NONE', *, *, #57, .F. ) ;
#25 = CARTESIAN_POINT ( 'NONE',  ( 1.047444401652940007E-13, -3.673940397442059178E-15, 30.00000000000000000 ) ) ;
#26 = VERTEX_POINT ( 'NONE', #216 ) ;
#27 = CYLINDRICAL_SURFACE ( 'NONE', #130, 0.6499999999999993561 ) ;
#28 = FACE_BOUND ( 'NONE', #121, .T. ) ;
#29 = CIRCLE ( 'NONE', #209, 0.7500000000000000000 ) ;
#30 =( NAMED_UNIT ( * ) PLANE_ANGLE_UNIT ( ) SI_UNIT ( $, .RADIAN. ) );
#31 = APPROVAL_ROLE ( '' ) ;
#32 = APPLICATION_CONTEXT ( 'configuration controlled 3d designs of mechanical parts and assemblies' ) ;
#33 = CALENDAR_DATE ( 2021, 8, 10 ) ;
#34 = ADVANCED_FACE ( 'NONE', ( #175 ), #19, .T. ) ;
#35 = PERSON_AND_ORGANIZATION ( #137, #22 ) ;
#36 = AXIS2_PLACEMENT_3D ( 'NONE', #58, #211, #20 ) ;
#37 = AXIS2_PLACEMENT_3D ( 'NONE', #111, #11, #166 ) ;
#38 = FACE_OUTER_BOUND ( 'NONE', #83, .T. ) ;
#39 = ORIENTED_EDGE ( 'NONE', *, *, #57, .T. ) ;
#40 = DIRECTION ( 'NONE',  ( 0.0000000000000000000, 1.000000000000000000, 0.0000000000000000000 ) ) ;
#41 = CIRCLE ( 'NONE', #168, 0.6499999999999999112 ) ;
#42 = PRODUCT ( '187', '187', '', ( #15 ) ) ;
#43 = ADVANCED_FACE ( 'NONE', ( #138 ), #44, .F. ) ;
#44 = PLANE ( 'NONE',  #178 ) ;
#45 = DIRECTION ( 'NONE',  ( -3.491481338843133355E-15, 1.224646799147353207E-16, -1.000000000000000000 ) ) ;
#46 = DIRECTION ( 'NONE',  ( 0.0000000000000000000, 1.000000000000000000, 0.0000000000000000000 ) ) ;
#47 = LOCAL_TIME ( 7, 53, 42.00000000000000000, #156 ) ;
#48 = DATE_AND_TIME ( #223, #10 ) ;
#49 = PERSON_AND_ORGANIZATION_ROLE ( 'design_supplier' ) ;
#50 = ADVANCED_FACE ( 'NONE', ( #73, #110 ), #88, .T. ) ;
#51 = CIRCLE ( 'NONE', #37, 0.6499999999999989120 ) ;
#52 = DATE_TIME_ROLE ( 'creation_date' ) ;
#53 = SECURITY_CLASSIFICATION_LEVEL ( 'unclassified' ) ;
#54 = CARTESIAN_POINT ( 'NONE',  ( 1.047444401652940007E-13, 4.124339402320052999E-33, 30.00000000000000000 ) ) ;
#55 = ORIENTED_EDGE ( 'NONE', *, *, #215, .F. ) ;
#56 = ADVANCED_BREP_SHAPE_REPRESENTATION ( '187', ( #176, #102, #67 ), #134 ) ;
#57 = EDGE_CURVE ( 'NONE', #61, #61, #197, .T. ) ;
#58 = CARTESIAN_POINT ( 'NONE',  ( 0.0000000000000000000, 0.0000000000000000000, 0.0000000000000000000 ) ) ;
#59 = ORIENTED_EDGE ( 'NONE', *, *, #81, .F. ) ;
#60 = VERTEX_POINT ( 'NONE', #167 ) ;
#61 = VERTEX_POINT ( 'NONE', #80 ) ;
#62 = AXIS2_PLACEMENT_3D ( 'NONE', #191, #107, #23 ) ;
#63 = APPROVAL ( #68, 'UNSPECIFIED' ) ;
#64 = DIRECTION ( 'NONE',  ( 3.491481338843133355E-15, -1.224646799147353207E-16, 1.000000000000000000 ) ) ;
#65 = PERSON_AND_ORGANIZATION_ROLE ( 'design_owner' ) ;
#66 = PERSON_AND_ORGANIZATION_ROLE ( 'classification_officer' ) ;
#67 = AXIS2_PLACEMENT_3D ( 'NONE', #96, #199, #113 ) ;
#68 = APPROVAL_STATUS ( 'not_yet_approved' ) ;
#69 = EDGE_LOOP ( 'NONE', ( #39 ) ) ;
#70 = AXIS2_PLACEMENT_3D ( 'NONE', #76, #194, #40 ) ;
#71 = APPROVAL_PERSON_ORGANIZATION ( #35, #63, #117 ) ;
#72 = EDGE_LOOP ( 'NONE', ( #59 ) ) ;
#73 = FACE_OUTER_BOUND ( 'NONE', #72, .T. ) ;
#74 = ADVANCED_FACE ( 'NONE', ( #38, #91 ), #160, .T. ) ;
#75 = EDGE_LOOP ( 'NONE', ( #125 ) ) ;
#76 = CARTESIAN_POINT ( 'NONE',  ( 1.047444401652940007E-13, -3.673940397442059178E-15, 30.00000000000000000 ) ) ;
#77 = DIRECTION ( 'NONE',  ( -3.491481338843133355E-15, 1.224646799147353207E-16, -1.000000000000000000 ) ) ;
#78 = DIRECTION ( 'NONE',  ( 3.491481338843133355E-15, -1.224646799147353207E-16, 1.000000000000000000 ) ) ;
#79 = CARTESIAN_POINT ( 'NONE',  ( 1.047444401652940007E-13, 0.5499999999999963807, 30.00000000000000000 ) ) ;
#80 = CARTESIAN_POINT ( 'NONE',  ( 3.491481338843133355E-14, 0.6499999999999986899, 10.00000000000000000 ) ) ;
#81 = EDGE_CURVE ( 'NONE', #144, #144, #29, .T. ) ;
#82 = CALENDAR_DATE ( 2021, 8, 10 ) ;
#83 = EDGE_LOOP ( 'NONE', ( #151 ) ) ;
#84 = APPROVAL_DATE_TIME ( #135, #200 ) ;
#85 = CLOSED_SHELL ( 'NONE', ( #179, #89, #34 ) ) ;
#86 = LOCAL_TIME ( 7, 53, 42.00000000000000000, #103 ) ;
#87 = EDGE_LOOP ( 'NONE', ( #196 ) ) ;
#88 = CONICAL_SURFACE ( 'NONE', #70, 0.5500000000000000444, 0.7853981633974512766 ) ;
#89 = ADVANCED_FACE ( 'NONE', ( #198, #127 ), #27, .T. ) ;
#90 = CARTESIAN_POINT ( 'NONE',  ( 3.491481338843133355E-14, 4.874219293651018751E-33, 10.00000000000000000 ) ) ;
#91 = FACE_OUTER_BOUND ( 'NONE', #208, .T. ) ;
#92 = ORIENTED_EDGE ( 'NONE', *, *, #133, .F. ) ;
#93 = DIRECTION ( 'NONE',  ( 0.0000000000000000000, 1.000000000000000000, 0.0000000000000000000 ) ) ;
#94 = DIRECTION ( 'NONE',  ( 0.0000000000000000000, 1.000000000000000000, 0.0000000000000000000 ) ) ;
#95 = CARTESIAN_POINT ( 'NONE',  ( 0.0000000000000000000, 0.0000000000000000000, 0.0000000000000000000 ) ) ;
#96 = CARTESIAN_POINT ( 'NONE',  ( 0.0000000000000000000, 0.0000000000000000000, 0.0000000000000000000 ) ) ;
#97 = ADVANCED_FACE ( 'NONE', ( #28, #6 ), #146, .T. ) ;
#98 = CONICAL_SURFACE ( 'NONE', #185, 0.6499999999999989120, 1.047197551196592746 ) ;
#99 = CARTESIAN_POINT ( 'NONE',  ( 1.310274999053577319E-15, -4.595826034474641292E-17, 0.3752776749732603667 ) ) ;
#100 = CALENDAR_DATE ( 2021, 8, 10 ) ;
#101 = PRODUCT_DEFINITION_FORMATION_WITH_SPECIFIED_SOURCE ( 'ANY', '', #42, .NOT_KNOWN. ) ;
#102 = MANIFOLD_SOLID_BREP ( 'Corps-Déplacer/Copier1[2]', #85 ) ;
#103 = COORDINATED_UNIVERSAL_TIME_OFFSET ( 1, 0, .AHEAD. ) ;
#104 = PRODUCT_RELATED_PRODUCT_CATEGORY ( 'detail', '', ( #42 ) ) ;
#105 = APPROVAL_PERSON_ORGANIZATION ( #219, #118, #31 ) ;
#106 = CIRCLE ( 'NONE', #172, 0.5500000000000000444 ) ;
#107 = DIRECTION ( 'NONE',  ( -3.491481338843133355E-15, 1.224646799147353207E-16, -1.000000000000000000 ) ) ;
#108 = FACE_OUTER_BOUND ( 'NONE', #205, .T. ) ;
#109 = UNCERTAINTY_MEASURE_WITH_UNIT (LENGTH_MEASURE( 1.000000000000000082E-05 ), #126, 'distance_accuracy_value', 'NONE');
#110 = FACE_BOUND ( 'NONE', #120, .T. ) ;
#111 = CARTESIAN_POINT ( 'NONE',  ( 1.310274999053577319E-15, -4.595826034474641292E-17, 0.3752776749732603667 ) ) ;
#112 = CC_DESIGN_PERSON_AND_ORGANIZATION_ASSIGNMENT ( #149, #49, ( #101 ) ) ;
#113 = DIRECTION ( 'NONE',  ( 1.000000000000000000, 0.0000000000000000000, 0.0000000000000000000 ) ) ;
#114 = DIRECTION ( 'NONE',  ( -3.491481338843133355E-15, 1.224646799147353207E-16, -1.000000000000000000 ) ) ;
#115 = LOCAL_TIME ( 7, 53, 42.00000000000000000, #154 ) ;
#116 = DATE_TIME_ROLE ( 'classification_date' ) ;
#117 = APPROVAL_ROLE ( '' ) ;
#118 = APPROVAL ( #218, 'UNSPECIFIED' ) ;
#119 = DIRECTION ( 'NONE',  ( 4.275831445896958607E-31, 1.000000000000000000, 1.224646799147353207E-16 ) ) ;
#120 = EDGE_LOOP ( 'NONE', ( #142 ) ) ;
#121 = EDGE_LOOP ( 'NONE', ( #92 ) ) ;
#122 = SECURITY_CLASSIFICATION ( '', '', #53 ) ;
#123 = CARTESIAN_POINT ( 'NONE',  ( 1.040461438975253740E-13, -3.649447461459112464E-15, 29.80000000000000071 ) ) ;
#124 = PRODUCT_DEFINITION_SHAPE ( 'NONE', 'NONE',  #222 ) ;
#125 = ORIENTED_EDGE ( 'NONE', *, *, #207, .F. ) ;
#126 =( LENGTH_UNIT ( ) NAMED_UNIT ( * ) SI_UNIT ( .MILLI., .METRE. ) );
#127 = FACE_OUTER_BOUND ( 'NONE', #69, .T. ) ;
#128 = EDGE_CURVE ( 'NONE', #180, #180, #155, .T. ) ;
#129 = FACE_OUTER_BOUND ( 'NONE', #87, .T. ) ;
#130 = AXIS2_PLACEMENT_3D ( 'NONE', #95, #77, #147 ) ;
#131 = DATE_AND_TIME ( #82, #86 ) ;
#132 = AXIS2_PLACEMENT_3D ( 'NONE', #4, #157, #1 ) ;
#133 = EDGE_CURVE ( 'NONE', #26, #26, #41, .T. ) ;
#134 =( GEOMETRIC_REPRESENTATION_CONTEXT ( 3 ) GLOBAL_UNCERTAINTY_ASSIGNED_CONTEXT ( ( #109 ) ) GLOBAL_UNIT_ASSIGNED_CONTEXT ( ( #126, #30, #145 ) ) REPRESENTATION_CONTEXT ( 'NONE', 'WORKASPACE' ) );
#135 = DATE_AND_TIME ( #186, #47 ) ;
#136 = DATE_AND_TIME ( #33, #165 ) ;
#137 = PERSON ( 'UNSPECIFIED', 'UNSPECIFIED', 'UNSPECIFIED', ('UNSPECIFIED'), ('UNSPECIFIED'), ('UNSPECIFIED') ) ;
#138 = FACE_OUTER_BOUND ( 'NONE', #192, .T. ) ;
#139 = AXIS2_PLACEMENT_3D ( 'NONE', #201, #64, #169 ) ;
#140 = EDGE_LOOP ( 'NONE', ( #24 ) ) ;
#141 = ORIENTED_EDGE ( 'NONE', *, *, #81, .T. ) ;
#142 = ORIENTED_EDGE ( 'NONE', *, *, #215, .T. ) ;
#143 = CC_DESIGN_PERSON_AND_ORGANIZATION_ASSIGNMENT ( #173, #66, ( #122 ) ) ;
#144 = VERTEX_POINT ( 'NONE', #183 ) ;
#145 =( NAMED_UNIT ( * ) SI_UNIT ( $, .STERADIAN. ) SOLID_ANGLE_UNIT ( ) );
#146 = CONICAL_SURFACE ( 'NONE', #139, 0.7499999999999975575, 0.5235987755982961511 ) ;
#147 = DIRECTION ( 'NONE',  ( 4.275831445896958607E-31, 1.000000000000000000, 1.224646799147353207E-16 ) ) ;
#148 = VERTEX_POINT ( 'NONE', #79 ) ;
#149 = PERSON_AND_ORGANIZATION ( #137, #22 ) ;
#150 = PERSON_AND_ORGANIZATION ( #137, #22 ) ;
#151 = ORIENTED_EDGE ( 'NONE', *, *, #128, .F. ) ;
#152 = APPROVAL_ROLE ( '' ) ;
#153 = CC_DESIGN_DATE_AND_TIME_ASSIGNMENT ( #131, #52, ( #222 ) ) ;
#154 = COORDINATED_UNIVERSAL_TIME_OFFSET ( 1, 0, .AHEAD. ) ;
#155 = CIRCLE ( 'NONE', #195, 0.7499999999999975575 ) ;
#156 = COORDINATED_UNIVERSAL_TIME_OFFSET ( 1, 0, .AHEAD. ) ;
#157 = DIRECTION ( 'NONE',  ( 3.491481338843133355E-15, -1.224646799147353207E-16, 1.000000000000000000 ) ) ;
#158 = ORIENTED_EDGE ( 'NONE', *, *, #128, .T. ) ;
#159 = DIRECTION ( 'NONE',  ( 3.491481338843133355E-15, -1.224646799147353207E-16, 1.000000000000000000 ) ) ;
#160 = CYLINDRICAL_SURFACE ( 'NONE', #36, 0.7499999999999986677 ) ;
#161 = CC_DESIGN_DATE_AND_TIME_ASSIGNMENT ( #48, #116, ( #122 ) ) ;
#162 = DESIGN_CONTEXT ( 'detailed design', #32, 'design' ) ;
#163 = ORIENTED_EDGE ( 'NONE', *, *, #133, .T. ) ;
#164 = CLOSED_SHELL ( 'NONE', ( #17, #97, #74, #50, #43 ) ) ;
#165 = LOCAL_TIME ( 7, 53, 42.00000000000000000, #188 ) ;
#166 = DIRECTION ( 'NONE',  ( 2.962969145211137101E-31, 1.000000000000000000, 8.340016711426971312E-17 ) ) ;
#167 = CARTESIAN_POINT ( 'NONE',  ( 1.310274999053577517E-15, 0.6499999999999989120, 0.3752776749732604222 ) ) ;
#168 = AXIS2_PLACEMENT_3D ( 'NONE', #12, #45, #46 ) ;
#169 = DIRECTION ( 'NONE',  ( 0.0000000000000000000, -1.000000000000000000, 0.0000000000000000000 ) ) ;
#170 = DATE_AND_TIME ( #100, #115 ) ;
#171 = APPROVAL_DATE_TIME ( #170, #118 ) ;
#172 = AXIS2_PLACEMENT_3D ( 'NONE', #25, #217, #94 ) ;
#173 = PERSON_AND_ORGANIZATION ( #137, #22 ) ;
#174 = PERSON_AND_ORGANIZATION ( #137, #22 ) ;
#175 = FACE_OUTER_BOUND ( 'NONE', #140, .T. ) ;
#176 = MANIFOLD_SOLID_BREP ( 'Corps-Déplacer/Copier1[1]', #164 ) ;
#177 = PLANE ( 'NONE',  #181 ) ;
#178 = AXIS2_PLACEMENT_3D ( 'NONE', #54, #5, #119 ) ;
#179 = ADVANCED_FACE ( 'NONE', ( #129 ), #98, .T. ) ;
#180 = VERTEX_POINT ( 'NONE', #212 ) ;
#181 = AXIS2_PLACEMENT_3D ( 'NONE', #90, #159, #3 ) ;
#182 = DIRECTION ( 'NONE',  ( -3.491481338843133355E-15, 1.224646799147353207E-16, -1.000000000000000000 ) ) ;
#183 = CARTESIAN_POINT ( 'NONE',  ( 1.040461438975253740E-13, 0.7499999999999963363, 29.80000000000000071 ) ) ;
#184 = CC_DESIGN_PERSON_AND_ORGANIZATION_ASSIGNMENT ( #150, #190, ( #101 ) ) ;
#185 = AXIS2_PLACEMENT_3D ( 'NONE', #99, #78, #213 ) ;
#186 = CALENDAR_DATE ( 2021, 8, 10 ) ;
#187 = PERSON_AND_ORGANIZATION ( #137, #22 ) ;
#188 = COORDINATED_UNIVERSAL_TIME_OFFSET ( 1, 0, .AHEAD. ) ;
#189 = CC_DESIGN_APPROVAL ( #63, ( #222 ) ) ;
#190 = PERSON_AND_ORGANIZATION_ROLE ( 'creator' ) ;
#191 = CARTESIAN_POINT ( 'NONE',  ( 3.491481338843133355E-14, -1.224646799147353256E-15, 10.00000000000000000 ) ) ;
#192 = EDGE_LOOP ( 'NONE', ( #55 ) ) ;
#193 = CC_DESIGN_PERSON_AND_ORGANIZATION_ASSIGNMENT ( #174, #16, ( #222 ) ) ;
#194 = DIRECTION ( 'NONE',  ( -3.491481338843133355E-15, 1.224646799147353207E-16, -1.000000000000000000 ) ) ;
#195 = AXIS2_PLACEMENT_3D ( 'NONE', #8, #114, #7 ) ;
#196 = ORIENTED_EDGE ( 'NONE', *, *, #207, .T. ) ;
#197 = CIRCLE ( 'NONE', #62, 0.6499999999999999112 ) ;
#198 = FACE_OUTER_BOUND ( 'NONE', #75, .T. ) ;
#199 = DIRECTION ( 'NONE',  ( 0.0000000000000000000, 0.0000000000000000000, 1.000000000000000000 ) ) ;
#200 = APPROVAL ( #203, 'UNSPECIFIED' ) ;
#201 = CARTESIAN_POINT ( 'NONE',  ( 3.551955569568681549E-14, -1.245858303921850986E-15, 10.17320508075688501 ) ) ;
#202 = PERSON_AND_ORGANIZATION ( #137, #22 ) ;
#203 = APPROVAL_STATUS ( 'not_yet_approved' ) ;
#204 = APPLICATION_PROTOCOL_DEFINITION ( 'international standard', 'config_control_design', 1994, #32 ) ;
#205 = EDGE_LOOP ( 'NONE', ( #163 ) ) ;
#206 = EDGE_LOOP ( 'NONE', ( #158 ) ) ;
#207 = EDGE_CURVE ( 'NONE', #60, #60, #51, .T. ) ;
#208 = EDGE_LOOP ( 'NONE', ( #141 ) ) ;
#209 = AXIS2_PLACEMENT_3D ( 'NONE', #123, #182, #93 ) ;
#210 = APPROVAL_PERSON_ORGANIZATION ( #187, #200, #152 ) ;
#211 = DIRECTION ( 'NONE',  ( -3.491481338843133355E-15, 1.224646799147353207E-16, -1.000000000000000000 ) ) ;
#212 = CARTESIAN_POINT ( 'NONE',  ( 3.551955569568681549E-14, 0.7499999999999963363, 10.17320508075688501 ) ) ;
#213 = DIRECTION ( 'NONE',  ( -2.962969145211137101E-31, -1.000000000000000000, -8.340016711426971312E-17 ) ) ;
#214 = APPLICATION_PROTOCOL_DEFINITION ( 'international standard', 'config_control_design', 1994, #21 ) ;
#215 = EDGE_CURVE ( 'NONE', #148, #148, #106, .T. ) ;
#216 = CARTESIAN_POINT ( 'NONE',  ( 3.491481338843133355E-14, 0.6499999999999986899, 10.00000000000000000 ) ) ;
#217 = DIRECTION ( 'NONE',  ( -3.491481338843133355E-15, 1.224646799147353207E-16, -1.000000000000000000 ) ) ;
#218 = APPROVAL_STATUS ( 'not_yet_approved' ) ;
#219 = PERSON_AND_ORGANIZATION ( #137, #22 ) ;
#220 = COORDINATED_UNIVERSAL_TIME_OFFSET ( 1, 0, .AHEAD. ) ;
#221 = SHAPE_DEFINITION_REPRESENTATION ( #124, #56 ) ;
#222 = PRODUCT_DEFINITION ( 'UNKNOWN', '', #101, #162 ) ;
#223 = CALENDAR_DATE ( 2021, 8, 10 ) ;
ENDSEC;
END-ISO-10303-21;
