ISO-10303-21;
HEADER;
FILE_DESCRIPTION (( 'STEP AP203' ),
    '1' );
FILE_NAME ('18560.step',
    '2021-12-06T12:58:28',
    ( '' ),
    ( '' ),
    'SwSTEP 2.0',
    'SolidWorks 2019',
    '' );
FILE_SCHEMA (( 'CONFIG_CONTROL_DESIGN' ));
ENDSEC;

DATA;
#1 = DIRECTION ( 'NONE',  ( -3.491481338843133355E-15, 1.224646799147353454E-16, -1.000000000000000000 ) ) ;
#2 = APPROVAL_ROLE ( '' ) ;
#3 = CC_DESIGN_DATE_AND_TIME_ASSIGNMENT ( #78, #161, ( #113 ) ) ;
#4 =( NAMED_UNIT ( * ) SI_UNIT ( $, .STERADIAN. ) SOLID_ANGLE_UNIT ( ) );
#5 = DIRECTION ( 'NONE',  ( 4.622231866529365172E-31, 1.000000000000000000, 1.301042606982605074E-16 ) ) ;
#6 = FACE_BOUND ( 'NONE', #41, .T. ) ;
#7 = PERSON_AND_ORGANIZATION ( #150, #20 ) ;
#8 = ORIENTED_EDGE ( 'NONE', *, *, #39, .F. ) ;
#9 = VERTEX_POINT ( 'NONE', #97 ) ;
#10 = PRODUCT ( '18560', '18560', '', ( #44 ) ) ;
#11 = CC_DESIGN_DATE_AND_TIME_ASSIGNMENT ( #55, #14, ( #15 ) ) ;
#12 = AXIS2_PLACEMENT_3D ( 'NONE', #128, #31, #72 ) ;
#13 = PERSON_AND_ORGANIZATION_ROLE ( 'classification_officer' ) ;
#14 = DATE_TIME_ROLE ( 'classification_date' ) ;
#15 = SECURITY_CLASSIFICATION ( '', '', #90 ) ;
#16 = ADVANCED_FACE ( 'NONE', ( #107, #74 ), #160, .T. ) ;
#17 = AXIS2_PLACEMENT_3D ( 'NONE', #59, #45, #46 ) ;
#18 = APPLICATION_PROTOCOL_DEFINITION ( 'international standard', 'config_control_design', 1994, #71 ) ;
#19 = ORIENTED_EDGE ( 'NONE', *, *, #157, .F. ) ;
#20 = ORGANIZATION ( 'UNSPECIFIED', 'UNSPECIFIED', '' ) ;
#21 = CARTESIAN_POINT ( 'NONE',  ( -1.068957861474239739E-30, 3.749399456654645662E-32, -3.061616997868383634E-16 ) ) ;
#22 = EDGE_LOOP ( 'NONE', ( #116 ) ) ;
#23 = DATE_AND_TIME ( #147, #67 ) ;
#24 = LOCAL_TIME ( 13, 58, 28.00000000000000000, #87 ) ;
#25 = DIRECTION ( 'NONE',  ( -3.491481338843133355E-15, 1.224646799147353454E-16, -1.000000000000000000 ) ) ;
#26 = ADVANCED_FACE ( 'NONE', ( #6, #63 ), #32, .T. ) ;
#27 = CALENDAR_DATE ( 2021, 6, 12 ) ;
#28 = LOCAL_TIME ( 13, 58, 28.00000000000000000, #103 ) ;
#29 = PLANE ( 'NONE',  #88 ) ;
#30 = APPROVAL_PERSON_ORGANIZATION ( #68, #89, #102 ) ;
#31 = DIRECTION ( 'NONE',  ( -3.491481338843133355E-15, 1.224646799147353454E-16, -1.000000000000000000 ) ) ;
#32 = PLANE ( 'NONE',  #17 ) ;
#33 = PERSON_AND_ORGANIZATION ( #150, #20 ) ;
#34 = DIRECTION ( 'NONE',  ( -3.491481338843133355E-15, 1.224646799147353454E-16, -1.000000000000000000 ) ) ;
#35 = PERSON_AND_ORGANIZATION ( #150, #20 ) ;
#36 = DIRECTION ( 'NONE',  ( -3.491481338843133355E-15, 1.224646799147353454E-16, -1.000000000000000000 ) ) ;
#37 = PERSON_AND_ORGANIZATION_ROLE ( 'creator' ) ;
#38 = APPROVAL ( #95, 'UNSPECIFIED' ) ;
#39 = EDGE_CURVE ( 'NONE', #48, #48, #93, .T. ) ;
#40 = CC_DESIGN_APPROVAL ( #73, ( #111 ) ) ;
#41 = EDGE_LOOP ( 'NONE', ( #61 ) ) ;
#42 = AXIS2_PLACEMENT_3D ( 'NONE', #105, #36, #5 ) ;
#43 = CC_DESIGN_PERSON_AND_ORGANIZATION_ASSIGNMENT ( #33, #37, ( #113 ) ) ;
#44 = MECHANICAL_CONTEXT ( 'NONE', #129, 'mechanical' ) ;
#45 = DIRECTION ( 'NONE',  ( 3.491481338843133355E-15, -1.224646799147353454E-16, 1.000000000000000000 ) ) ;
#46 = DIRECTION ( 'NONE',  ( -4.275831445896959482E-31, -1.000000000000000000, -1.224646799147353454E-16 ) ) ;
#47 = APPLICATION_PROTOCOL_DEFINITION ( 'international standard', 'config_control_design', 1994, #129 ) ;
#48 = VERTEX_POINT ( 'NONE', #99 ) ;
#49 =( GEOMETRIC_REPRESENTATION_CONTEXT ( 3 ) GLOBAL_UNCERTAINTY_ASSIGNED_CONTEXT ( ( #100 ) ) GLOBAL_UNIT_ASSIGNED_CONTEXT ( ( #76, #85, #4 ) ) REPRESENTATION_CONTEXT ( 'NONE', 'WORKASPACE' ) );
#50 = CC_DESIGN_APPROVAL ( #38, ( #113 ) ) ;
#51 = CC_DESIGN_PERSON_AND_ORGANIZATION_ASSIGNMENT ( #62, #152, ( #111 ) ) ;
#52 = COORDINATED_UNIVERSAL_TIME_OFFSET ( 1, 0, .AHEAD. ) ;
#53 = SHAPE_DEFINITION_REPRESENTATION ( #166, #133 ) ;
#54 = CARTESIAN_POINT ( 'NONE',  ( -1.603436792211360222E-30, 2.500000000000000000, -4.592425496802575944E-16 ) ) ;
#55 = DATE_AND_TIME ( #27, #117 ) ;
#56 = EDGE_CURVE ( 'NONE', #83, #83, #141, .T. ) ;
#57 = PERSON_AND_ORGANIZATION_ROLE ( 'design_owner' ) ;
#58 = CIRCLE ( 'NONE', #154, 2.500000000000000000 ) ;
#59 = CARTESIAN_POINT ( 'NONE',  ( 1.745740669421565100E-15, 2.500000000000000444, 0.4999999999999995559 ) ) ;
#60 = COORDINATED_UNIVERSAL_TIME_OFFSET ( 1, 0, .AHEAD. ) ;
#61 = ORIENTED_EDGE ( 'NONE', *, *, #39, .T. ) ;
#62 = PERSON_AND_ORGANIZATION ( #150, #20 ) ;
#63 = FACE_OUTER_BOUND ( 'NONE', #98, .T. ) ;
#64 = AXIS2_PLACEMENT_3D ( 'NONE', #120, #34, #86 ) ;
#65 = PERSON_AND_ORGANIZATION ( #150, #20 ) ;
#66 = FACE_BOUND ( 'NONE', #156, .T. ) ;
#67 = LOCAL_TIME ( 13, 58, 28.00000000000000000, #60 ) ;
#68 = PERSON_AND_ORGANIZATION ( #150, #20 ) ;
#69 = MANIFOLD_SOLID_BREP ( 'Corps-Déplacer/Copier1', #163 ) ;
#70 = CC_DESIGN_PERSON_AND_ORGANIZATION_ASSIGNMENT ( #140, #131, ( #111 ) ) ;
#71 = APPLICATION_CONTEXT ( 'configuration controlled 3d designs of mechanical parts and assemblies' ) ;
#72 = DIRECTION ( 'NONE',  ( 4.275831445896958607E-31, 1.000000000000000000, 1.224646799147353454E-16 ) ) ;
#73 = APPROVAL ( #159, 'UNSPECIFIED' ) ;
#74 = FACE_OUTER_BOUND ( 'NONE', #22, .T. ) ;
#75 = ORIENTED_EDGE ( 'NONE', *, *, #56, .T. ) ;
#76 =( LENGTH_UNIT ( ) NAMED_UNIT ( * ) SI_UNIT ( .MILLI., .METRE. ) );
#77 = EDGE_LOOP ( 'NONE', ( #136 ) ) ;
#78 = DATE_AND_TIME ( #108, #28 ) ;
#79 = APPROVAL_DATE_TIME ( #92, #89 ) ;
#80 = DIRECTION ( 'NONE',  ( -3.491481338843133355E-15, 1.224646799147353454E-16, -1.000000000000000000 ) ) ;
#81 = CC_DESIGN_SECURITY_CLASSIFICATION ( #15, ( #111 ) ) ;
#82 = ADVANCED_FACE ( 'NONE', ( #96, #148 ), #149, .F. ) ;
#83 = VERTEX_POINT ( 'NONE', #146 ) ;
#84 = DIRECTION ( 'NONE',  ( 4.237045877651918877E-31, 1.000000000000000000, 1.192622389734054877E-16 ) ) ;
#85 =( NAMED_UNIT ( * ) PLANE_ANGLE_UNIT ( ) SI_UNIT ( $, .RADIAN. ) );
#86 = DIRECTION ( 'NONE',  ( 4.275831445896958607E-31, 1.000000000000000000, 1.224646799147353454E-16 ) ) ;
#87 = COORDINATED_UNIVERSAL_TIME_OFFSET ( 1, 0, .AHEAD. ) ;
#88 = AXIS2_PLACEMENT_3D ( 'NONE', #54, #80, #121 ) ;
#89 = APPROVAL ( #132, 'UNSPECIFIED' ) ;
#90 = SECURITY_CLASSIFICATION_LEVEL ( 'unclassified' ) ;
#91 = AXIS2_PLACEMENT_3D ( 'NONE', #123, #104, #119 ) ;
#92 = DATE_AND_TIME ( #143, #167 ) ;
#93 = CIRCLE ( 'NONE', #42, 2.500000000000000444 ) ;
#94 = DATE_AND_TIME ( #137, #24 ) ;
#95 = APPROVAL_STATUS ( 'not_yet_approved' ) ;
#96 = FACE_OUTER_BOUND ( 'NONE', #77, .T. ) ;
#97 = CARTESIAN_POINT ( 'NONE',  ( 0.0000000000000000000, 10.00000000000000000, 0.0000000000000000000 ) ) ;
#98 = EDGE_LOOP ( 'NONE', ( #134 ) ) ;
#99 = CARTESIAN_POINT ( 'NONE',  ( 1.745740669421566678E-15, 2.500000000000000444, 0.5000000000000000000 ) ) ;
#100 = UNCERTAINTY_MEASURE_WITH_UNIT (LENGTH_MEASURE( 1.000000000000000082E-05 ), #76, 'distance_accuracy_value', 'NONE');
#101 = CARTESIAN_POINT ( 'NONE',  ( 0.0000000000000000000, 2.500000000000000000, 0.0000000000000000000 ) ) ;
#102 = APPROVAL_ROLE ( '' ) ;
#103 = COORDINATED_UNIVERSAL_TIME_OFFSET ( 1, 0, .AHEAD. ) ;
#104 = DIRECTION ( 'NONE',  ( 0.0000000000000000000, 0.0000000000000000000, 1.000000000000000000 ) ) ;
#105 = CARTESIAN_POINT ( 'NONE',  ( 1.745740669421565494E-15, -6.123233995736763571E-17, 0.4999999999999996669 ) ) ;
#106 = APPROVAL_DATE_TIME ( #23, #38 ) ;
#107 = FACE_OUTER_BOUND ( 'NONE', #127, .T. ) ;
#108 = CALENDAR_DATE ( 2021, 6, 12 ) ;
#109 = CIRCLE ( 'NONE', #12, 10.00000000000000000 ) ;
#110 = APPROVAL_ROLE ( '' ) ;
#111 = PRODUCT_DEFINITION_FORMATION_WITH_SPECIFIED_SOURCE ( 'ANY', '', #10, .NOT_KNOWN. ) ;
#112 = CC_DESIGN_PERSON_AND_ORGANIZATION_ASSIGNMENT ( #65, #13, ( #15 ) ) ;
#113 = PRODUCT_DEFINITION ( 'UNKNOWN', '', #111, #142 ) ;
#114 = AXIS2_PLACEMENT_3D ( 'NONE', #138, #25, #84 ) ;
#115 = APPROVAL_PERSON_ORGANIZATION ( #118, #38, #2 ) ;
#116 = ORIENTED_EDGE ( 'NONE', *, *, #130, .F. ) ;
#117 = LOCAL_TIME ( 13, 58, 28.00000000000000000, #52 ) ;
#118 = PERSON_AND_ORGANIZATION ( #150, #20 ) ;
#119 = DIRECTION ( 'NONE',  ( 1.000000000000000000, 0.0000000000000000000, 0.0000000000000000000 ) ) ;
#120 = CARTESIAN_POINT ( 'NONE',  ( 0.0000000000000000000, 0.0000000000000000000, 0.0000000000000000000 ) ) ;
#121 = DIRECTION ( 'NONE',  ( 4.275831445896959482E-31, 1.000000000000000000, 1.224646799147353454E-16 ) ) ;
#122 = FACE_OUTER_BOUND ( 'NONE', #151, .T. ) ;
#123 = CARTESIAN_POINT ( 'NONE',  ( 0.0000000000000000000, 0.0000000000000000000, 0.0000000000000000000 ) ) ;
#124 = EDGE_LOOP ( 'NONE', ( #8 ) ) ;
#125 = ADVANCED_FACE ( 'NONE', ( #122, #66 ), #29, .T. ) ;
#126 = APPROVAL_DATE_TIME ( #94, #73 ) ;
#127 = EDGE_LOOP ( 'NONE', ( #75 ) ) ;
#128 = CARTESIAN_POINT ( 'NONE',  ( -4.275831445896958957E-30, 1.499759782661858265E-31, -1.224646799147353454E-15 ) ) ;
#129 = APPLICATION_CONTEXT ( 'configuration controlled 3d designs of mechanical parts and assemblies' ) ;
#130 = EDGE_CURVE ( 'NONE', #9, #9, #109, .T. ) ;
#131 = PERSON_AND_ORGANIZATION_ROLE ( 'design_supplier' ) ;
#132 = APPROVAL_STATUS ( 'not_yet_approved' ) ;
#133 = ADVANCED_BREP_SHAPE_REPRESENTATION ( '18560', ( #69, #91 ), #49 ) ;
#134 = ORIENTED_EDGE ( 'NONE', *, *, #56, .F. ) ;
#135 = DIRECTION ( 'NONE',  ( 4.275831445896959482E-31, 1.000000000000000000, 1.224646799147353700E-16 ) ) ;
#136 = ORIENTED_EDGE ( 'NONE', *, *, #157, .T. ) ;
#137 = CALENDAR_DATE ( 2021, 6, 12 ) ;
#138 = CARTESIAN_POINT ( 'NONE',  ( 1.745740669421562536E-15, -6.123233995736752477E-17, 0.4999999999999988343 ) ) ;
#139 = APPROVAL_PERSON_ORGANIZATION ( #35, #73, #110 ) ;
#140 = PERSON_AND_ORGANIZATION ( #150, #20 ) ;
#141 = CIRCLE ( 'NONE', #114, 10.00000000000000000 ) ;
#142 = DESIGN_CONTEXT ( 'detailed design', #71, 'design' ) ;
#143 = CALENDAR_DATE ( 2021, 6, 12 ) ;
#144 = CC_DESIGN_PERSON_AND_ORGANIZATION_ASSIGNMENT ( #7, #57, ( #10 ) ) ;
#145 = CARTESIAN_POINT ( 'NONE',  ( 0.0000000000000000000, 0.0000000000000000000, 0.0000000000000000000 ) ) ;
#146 = CARTESIAN_POINT ( 'NONE',  ( 1.745740669421566678E-15, 10.00000000000000000, 0.5000000000000000000 ) ) ;
#147 = CALENDAR_DATE ( 2021, 6, 12 ) ;
#148 = FACE_OUTER_BOUND ( 'NONE', #124, .T. ) ;
#149 = CYLINDRICAL_SURFACE ( 'NONE', #158, 2.500000000000000444 ) ;
#150 = PERSON ( 'UNSPECIFIED', 'UNSPECIFIED', 'UNSPECIFIED', ('UNSPECIFIED'), ('UNSPECIFIED'), ('UNSPECIFIED') ) ;
#151 = EDGE_LOOP ( 'NONE', ( #162 ) ) ;
#152 = PERSON_AND_ORGANIZATION_ROLE ( 'creator' ) ;
#153 = DIRECTION ( 'NONE',  ( 4.275831445896958607E-31, 1.000000000000000000, 1.224646799147353454E-16 ) ) ;
#154 = AXIS2_PLACEMENT_3D ( 'NONE', #21, #165, #153 ) ;
#155 = CC_DESIGN_APPROVAL ( #89, ( #15 ) ) ;
#156 = EDGE_LOOP ( 'NONE', ( #19 ) ) ;
#157 = EDGE_CURVE ( 'NONE', #164, #164, #58, .T. ) ;
#158 = AXIS2_PLACEMENT_3D ( 'NONE', #145, #1, #135 ) ;
#159 = APPROVAL_STATUS ( 'not_yet_approved' ) ;
#160 = CYLINDRICAL_SURFACE ( 'NONE', #64, 10.00000000000000000 ) ;
#161 = DATE_TIME_ROLE ( 'creation_date' ) ;
#162 = ORIENTED_EDGE ( 'NONE', *, *, #130, .T. ) ;
#163 = CLOSED_SHELL ( 'NONE', ( #125, #16, #26, #82 ) ) ;
#164 = VERTEX_POINT ( 'NONE', #101 ) ;
#165 = DIRECTION ( 'NONE',  ( -3.491481338843133355E-15, 1.224646799147353454E-16, -1.000000000000000000 ) ) ;
#166 = PRODUCT_DEFINITION_SHAPE ( 'NONE', 'NONE',  #113 ) ;
#167 = LOCAL_TIME ( 13, 58, 28.00000000000000000, #168 ) ;
#168 = COORDINATED_UNIVERSAL_TIME_OFFSET ( 1, 0, .AHEAD. ) ;
#169 = PRODUCT_RELATED_PRODUCT_CATEGORY ( 'detail', '', ( #10 ) ) ;
ENDSEC;
END-ISO-10303-21;
