ISO-10303-21;
HEADER;
FILE_DESCRIPTION (( 'STEP AP203' ),
    '1' );
FILE_NAME ('18429.step',
    '2021-12-06T12:58:28',
    ( '' ),
    ( '' ),
    'SwSTEP 2.0',
    'SolidWorks 2019',
    '' );
FILE_SCHEMA (( 'CONFIG_CONTROL_DESIGN' ));
ENDSEC;

DATA;
#1 = PRODUCT_RELATED_PRODUCT_CATEGORY ( 'detail', '', ( #119 ) ) ;
#2 = CC_DESIGN_PERSON_AND_ORGANIZATION_ASSIGNMENT ( #142, #54, ( #35 ) ) ;
#3 = AXIS2_PLACEMENT_3D ( 'NONE', #111, #123, #145 ) ;
#4 = LOCAL_TIME ( 13, 58, 28.00000000000000000, #141 ) ;
#5 = FACE_BOUND ( 'NONE', #146, .T. ) ;
#6 = MANIFOLD_SOLID_BREP ( 'Corps-Déplacer/Copier1', #53 ) ;
#7 = DESIGN_CONTEXT ( 'detailed design', #13, 'design' ) ;
#8 = CARTESIAN_POINT ( 'NONE',  ( -1.710332578358783443E-30, 5.999039130647432621E-32, -4.898587196589413815E-16 ) ) ;
#9 = CC_DESIGN_PERSON_AND_ORGANIZATION_ASSIGNMENT ( #52, #103, ( #119 ) ) ;
#10 = FACE_OUTER_BOUND ( 'NONE', #122, .T. ) ;
#11 = APPLICATION_PROTOCOL_DEFINITION ( 'international standard', 'config_control_design', 1994, #115 ) ;
#12 = APPROVAL_ROLE ( '' ) ;
#13 = APPLICATION_CONTEXT ( 'configuration controlled 3d designs of mechanical parts and assemblies' ) ;
#14 = LOCAL_TIME ( 13, 58, 28.00000000000000000, #165 ) ;
#15 = DIRECTION ( 'NONE',  ( -3.491481338843133355E-15, 1.224646799147353454E-16, -1.000000000000000000 ) ) ;
#16 = CC_DESIGN_DATE_AND_TIME_ASSIGNMENT ( #81, #151, ( #120 ) ) ;
#17 = CARTESIAN_POINT ( 'NONE',  ( 3.421138828918010427E-46, 4.000000000000000000, 0.0000000000000000000 ) ) ;
#18 = EDGE_CURVE ( 'NONE', #20, #20, #77, .T. ) ;
#19 = ORIENTED_EDGE ( 'NONE', *, *, #155, .F. ) ;
#20 = VERTEX_POINT ( 'NONE', #72 ) ;
#21 = ORIENTED_EDGE ( 'NONE', *, *, #155, .T. ) ;
#22 = CARTESIAN_POINT ( 'NONE',  ( 1.745740669421566678E-15, 15.00000000000000000, 0.5000000000000000000 ) ) ;
#23 = CC_DESIGN_PERSON_AND_ORGANIZATION_ASSIGNMENT ( #143, #100, ( #120 ) ) ;
#24 = CALENDAR_DATE ( 2021, 6, 12 ) ;
#25 = CALENDAR_DATE ( 2021, 6, 12 ) ;
#26 = AXIS2_PLACEMENT_3D ( 'NONE', #8, #133, #135 ) ;
#27 = VERTEX_POINT ( 'NONE', #22 ) ;
#28 = DIRECTION ( 'NONE',  ( -3.491481338843133355E-15, 1.224646799147353454E-16, -1.000000000000000000 ) ) ;
#29 = CIRCLE ( 'NONE', #47, 15.00000000000000000 ) ;
#30 = ORIENTED_EDGE ( 'NONE', *, *, #49, .T. ) ;
#31 = FACE_OUTER_BOUND ( 'NONE', #73, .T. ) ;
#32 = ORIENTED_EDGE ( 'NONE', *, *, #109, .F. ) ;
#33 = VERTEX_POINT ( 'NONE', #158 ) ;
#34 = CC_DESIGN_SECURITY_CLASSIFICATION ( #120, ( #35 ) ) ;
#35 = PRODUCT_DEFINITION_FORMATION_WITH_SPECIFIED_SOURCE ( 'ANY', '', #119, .NOT_KNOWN. ) ;
#36 = APPROVAL_STATUS ( 'not_yet_approved' ) ;
#37 = PERSON_AND_ORGANIZATION ( #139, #137 ) ;
#38 = DATE_AND_TIME ( #25, #129 ) ;
#39 =( GEOMETRIC_REPRESENTATION_CONTEXT ( 3 ) GLOBAL_UNCERTAINTY_ASSIGNED_CONTEXT ( ( #138 ) ) GLOBAL_UNIT_ASSIGNED_CONTEXT ( ( #149, #125, #160 ) ) REPRESENTATION_CONTEXT ( 'NONE', 'WORKASPACE' ) );
#40 = APPROVAL ( #114, 'UNSPECIFIED' ) ;
#41 = CIRCLE ( 'NONE', #26, 4.000000000000000000 ) ;
#42 = ADVANCED_BREP_SHAPE_REPRESENTATION ( '18429', ( #6, #132 ), #39 ) ;
#43 = FACE_BOUND ( 'NONE', #134, .T. ) ;
#44 = ORIENTED_EDGE ( 'NONE', *, *, #49, .F. ) ;
#45 = CARTESIAN_POINT ( 'NONE',  ( 0.0000000000000000000, 0.0000000000000000000, 0.0000000000000000000 ) ) ;
#46 = ORIENTED_EDGE ( 'NONE', *, *, #109, .T. ) ;
#47 = AXIS2_PLACEMENT_3D ( 'NONE', #164, #15, #147 ) ;
#48 = COORDINATED_UNIVERSAL_TIME_OFFSET ( 1, 0, .AHEAD. ) ;
#49 = EDGE_CURVE ( 'NONE', #33, #33, #98, .T. ) ;
#50 = CALENDAR_DATE ( 2021, 6, 12 ) ;
#51 = PERSON_AND_ORGANIZATION ( #139, #137 ) ;
#52 = PERSON_AND_ORGANIZATION ( #139, #137 ) ;
#53 = CLOSED_SHELL ( 'NONE', ( #55, #144, #86, #69 ) ) ;
#54 = PERSON_AND_ORGANIZATION_ROLE ( 'creator' ) ;
#55 = ADVANCED_FACE ( 'NONE', ( #112, #5 ), #121, .T. ) ;
#56 = PRODUCT_DEFINITION_SHAPE ( 'NONE', 'NONE',  #127 ) ;
#57 = CC_DESIGN_APPROVAL ( #40, ( #35 ) ) ;
#58 = CARTESIAN_POINT ( 'NONE',  ( 1.745740669421564508E-15, 4.000000000000000000, 0.4999999999999993339 ) ) ;
#59 = DIRECTION ( 'NONE',  ( 3.851859888774471706E-31, 1.000000000000000000, 1.355252715606880543E-16 ) ) ;
#60 = DIRECTION ( 'NONE',  ( 4.275831445896959482E-31, 1.000000000000000000, 1.224646799147353207E-16 ) ) ;
#61 = DIRECTION ( 'NONE',  ( 3.491481338843133355E-15, -1.224646799147353454E-16, 1.000000000000000000 ) ) ;
#62 = DIRECTION ( 'NONE',  ( -3.491481338843133355E-15, 1.224646799147353454E-16, -1.000000000000000000 ) ) ;
#63 = PLANE ( 'NONE',  #106 ) ;
#64 = PERSON_AND_ORGANIZATION ( #139, #137 ) ;
#65 = COORDINATED_UNIVERSAL_TIME_OFFSET ( 1, 0, .AHEAD. ) ;
#66 = APPROVAL_STATUS ( 'not_yet_approved' ) ;
#67 = AXIS2_PLACEMENT_3D ( 'NONE', #45, #108, #157 ) ;
#68 = CALENDAR_DATE ( 2021, 6, 12 ) ;
#69 = ADVANCED_FACE ( 'NONE', ( #148, #31 ), #113, .F. ) ;
#70 = APPROVAL_PERSON_ORGANIZATION ( #64, #40, #90 ) ;
#71 = CARTESIAN_POINT ( 'NONE',  ( 0.0000000000000000000, 0.0000000000000000000, 0.0000000000000000000 ) ) ;
#72 = CARTESIAN_POINT ( 'NONE',  ( 1.745740669421566283E-15, 4.000000000000000000, 0.5000000000000000000 ) ) ;
#73 = EDGE_LOOP ( 'NONE', ( #75 ) ) ;
#74 = CC_DESIGN_DATE_AND_TIME_ASSIGNMENT ( #104, #154, ( #127 ) ) ;
#75 = ORIENTED_EDGE ( 'NONE', *, *, #18, .F. ) ;
#76 = FACE_OUTER_BOUND ( 'NONE', #159, .T. ) ;
#77 = CIRCLE ( 'NONE', #168, 4.000000000000000000 ) ;
#78 = APPROVAL_ROLE ( '' ) ;
#79 = AXIS2_PLACEMENT_3D ( 'NONE', #95, #84, #60 ) ;
#80 = SHAPE_DEFINITION_REPRESENTATION ( #56, #42 ) ;
#81 = DATE_AND_TIME ( #24, #150 ) ;
#82 = APPROVAL_PERSON_ORGANIZATION ( #130, #161, #12 ) ;
#83 = FACE_OUTER_BOUND ( 'NONE', #110, .T. ) ;
#84 = DIRECTION ( 'NONE',  ( -3.491481338843133355E-15, 1.224646799147353454E-16, -1.000000000000000000 ) ) ;
#85 = CYLINDRICAL_SURFACE ( 'NONE', #67, 15.00000000000000000 ) ;
#86 = ADVANCED_FACE ( 'NONE', ( #43, #76 ), #63, .T. ) ;
#87 = ORIENTED_EDGE ( 'NONE', *, *, #18, .T. ) ;
#88 = VERTEX_POINT ( 'NONE', #17 ) ;
#89 = LOCAL_TIME ( 13, 58, 28.00000000000000000, #48 ) ;
#90 = APPROVAL_ROLE ( '' ) ;
#91 = COORDINATED_UNIVERSAL_TIME_OFFSET ( 1, 0, .AHEAD. ) ;
#92 = APPROVAL_DATE_TIME ( #166, #163 ) ;
#93 = PERSON_AND_ORGANIZATION_ROLE ( 'design_supplier' ) ;
#94 = DIRECTION ( 'NONE',  ( 4.275831445896959482E-31, 1.000000000000000000, 1.224646799147353454E-16 ) ) ;
#95 = CARTESIAN_POINT ( 'NONE',  ( -6.413747168845439486E-30, 2.249639673992787069E-31, -1.836970198721029983E-15 ) ) ;
#96 = DIRECTION ( 'NONE',  ( -4.275831445896959482E-31, -1.000000000000000000, -1.224646799147353454E-16 ) ) ;
#97 = AXIS2_PLACEMENT_3D ( 'NONE', #131, #28, #94 ) ;
#98 = CIRCLE ( 'NONE', #79, 15.00000000000000000 ) ;
#99 = CC_DESIGN_APPROVAL ( #161, ( #120 ) ) ;
#100 = PERSON_AND_ORGANIZATION_ROLE ( 'classification_officer' ) ;
#101 = PERSON_AND_ORGANIZATION ( #139, #137 ) ;
#102 = CC_DESIGN_PERSON_AND_ORGANIZATION_ASSIGNMENT ( #37, #117, ( #127 ) ) ;
#103 = PERSON_AND_ORGANIZATION_ROLE ( 'design_owner' ) ;
#104 = DATE_AND_TIME ( #50, #14 ) ;
#105 = DIRECTION ( 'NONE',  ( 0.0000000000000000000, 0.0000000000000000000, 1.000000000000000000 ) ) ;
#106 = AXIS2_PLACEMENT_3D ( 'NONE', #58, #61, #96 ) ;
#107 = CC_DESIGN_APPROVAL ( #163, ( #127 ) ) ;
#108 = DIRECTION ( 'NONE',  ( -3.491481338843133355E-15, 1.224646799147353454E-16, -1.000000000000000000 ) ) ;
#109 = EDGE_CURVE ( 'NONE', #27, #27, #29, .T. ) ;
#110 = EDGE_LOOP ( 'NONE', ( #46 ) ) ;
#111 = CARTESIAN_POINT ( 'NONE',  ( -2.351707295243327321E-30, 4.000000000000000000, -6.735557395310443009E-16 ) ) ;
#112 = FACE_OUTER_BOUND ( 'NONE', #124, .T. ) ;
#113 = CYLINDRICAL_SURFACE ( 'NONE', #97, 4.000000000000000000 ) ;
#114 = APPROVAL_STATUS ( 'not_yet_approved' ) ;
#115 = APPLICATION_CONTEXT ( 'configuration controlled 3d designs of mechanical parts and assemblies' ) ;
#116 = CALENDAR_DATE ( 2021, 6, 12 ) ;
#117 = PERSON_AND_ORGANIZATION_ROLE ( 'creator' ) ;
#118 = MECHANICAL_CONTEXT ( 'NONE', #115, 'mechanical' ) ;
#119 = PRODUCT ( '18429', '18429', '', ( #118 ) ) ;
#120 = SECURITY_CLASSIFICATION ( '', '', #126 ) ;
#121 = PLANE ( 'NONE',  #3 ) ;
#122 = EDGE_LOOP ( 'NONE', ( #44 ) ) ;
#123 = DIRECTION ( 'NONE',  ( -3.491481338843133355E-15, 1.224646799147353454E-16, -1.000000000000000000 ) ) ;
#124 = EDGE_LOOP ( 'NONE', ( #30 ) ) ;
#125 =( NAMED_UNIT ( * ) PLANE_ANGLE_UNIT ( ) SI_UNIT ( $, .RADIAN. ) );
#126 = SECURITY_CLASSIFICATION_LEVEL ( 'unclassified' ) ;
#127 = PRODUCT_DEFINITION ( 'UNKNOWN', '', #35, #7 ) ;
#128 = DATE_AND_TIME ( #68, #4 ) ;
#129 = LOCAL_TIME ( 13, 58, 28.00000000000000000, #65 ) ;
#130 = PERSON_AND_ORGANIZATION ( #139, #137 ) ;
#131 = CARTESIAN_POINT ( 'NONE',  ( 0.0000000000000000000, 0.0000000000000000000, 0.0000000000000000000 ) ) ;
#132 = AXIS2_PLACEMENT_3D ( 'NONE', #71, #105, #167 ) ;
#133 = DIRECTION ( 'NONE',  ( -3.491481338843133355E-15, 1.224646799147353454E-16, -1.000000000000000000 ) ) ;
#134 = EDGE_LOOP ( 'NONE', ( #87 ) ) ;
#135 = DIRECTION ( 'NONE',  ( 4.275831445896959482E-31, 1.000000000000000000, 1.224646799147353454E-16 ) ) ;
#136 = EDGE_LOOP ( 'NONE', ( #21 ) ) ;
#137 = ORGANIZATION ( 'UNSPECIFIED', 'UNSPECIFIED', '' ) ;
#138 = UNCERTAINTY_MEASURE_WITH_UNIT (LENGTH_MEASURE( 1.000000000000000082E-05 ), #149, 'distance_accuracy_value', 'NONE');
#139 = PERSON ( 'UNSPECIFIED', 'UNSPECIFIED', 'UNSPECIFIED', ('UNSPECIFIED'), ('UNSPECIFIED'), ('UNSPECIFIED') ) ;
#140 = CC_DESIGN_PERSON_AND_ORGANIZATION_ASSIGNMENT ( #101, #93, ( #35 ) ) ;
#141 = COORDINATED_UNIVERSAL_TIME_OFFSET ( 1, 0, .AHEAD. ) ;
#142 = PERSON_AND_ORGANIZATION ( #139, #137 ) ;
#143 = PERSON_AND_ORGANIZATION ( #139, #137 ) ;
#144 = ADVANCED_FACE ( 'NONE', ( #83, #10 ), #85, .T. ) ;
#145 = DIRECTION ( 'NONE',  ( 4.275831445896959482E-31, 1.000000000000000000, 1.224646799147353454E-16 ) ) ;
#146 = EDGE_LOOP ( 'NONE', ( #19 ) ) ;
#147 = DIRECTION ( 'NONE',  ( 4.365441207277734308E-31, 1.000000000000000000, 1.228762462150238276E-16 ) ) ;
#148 = FACE_OUTER_BOUND ( 'NONE', #136, .T. ) ;
#149 =( LENGTH_UNIT ( ) NAMED_UNIT ( * ) SI_UNIT ( .MILLI., .METRE. ) );
#150 = LOCAL_TIME ( 13, 58, 28.00000000000000000, #91 ) ;
#151 = DATE_TIME_ROLE ( 'classification_date' ) ;
#152 = APPROVAL_DATE_TIME ( #128, #161 ) ;
#153 = APPROVAL_DATE_TIME ( #38, #40 ) ;
#154 = DATE_TIME_ROLE ( 'creation_date' ) ;
#155 = EDGE_CURVE ( 'NONE', #88, #88, #41, .T. ) ;
#156 = APPROVAL_PERSON_ORGANIZATION ( #51, #163, #78 ) ;
#157 = DIRECTION ( 'NONE',  ( 4.275831445896959482E-31, 1.000000000000000000, 1.224646799147353207E-16 ) ) ;
#158 = CARTESIAN_POINT ( 'NONE',  ( 0.0000000000000000000, 15.00000000000000000, 0.0000000000000000000 ) ) ;
#159 = EDGE_LOOP ( 'NONE', ( #32 ) ) ;
#160 =( NAMED_UNIT ( * ) SI_UNIT ( $, .STERADIAN. ) SOLID_ANGLE_UNIT ( ) );
#161 = APPROVAL ( #36, 'UNSPECIFIED' ) ;
#162 = CARTESIAN_POINT ( 'NONE',  ( 1.745740669421564903E-15, -6.123233995736761105E-17, 0.4999999999999994449 ) ) ;
#163 = APPROVAL ( #66, 'UNSPECIFIED' ) ;
#164 = CARTESIAN_POINT ( 'NONE',  ( 1.745740669421560170E-15, -6.123233995736745082E-17, 0.4999999999999981681 ) ) ;
#165 = COORDINATED_UNIVERSAL_TIME_OFFSET ( 1, 0, .AHEAD. ) ;
#166 = DATE_AND_TIME ( #116, #89 ) ;
#167 = DIRECTION ( 'NONE',  ( 1.000000000000000000, 0.0000000000000000000, 0.0000000000000000000 ) ) ;
#168 = AXIS2_PLACEMENT_3D ( 'NONE', #162, #62, #59 ) ;
#169 = APPLICATION_PROTOCOL_DEFINITION ( 'international standard', 'config_control_design', 1994, #13 ) ;
ENDSEC;
END-ISO-10303-21;
