ISO-10303-21;
HEADER;
FILE_DESCRIPTION (( 'STEP AP203' ),
    '1' );
FILE_NAME ('184.step',
    '2021-10-08T05:53:41',
    ( '' ),
    ( '' ),
    'SwSTEP 2.0',
    'SolidWorks 2019',
    '' );
FILE_SCHEMA (( 'CONFIG_CONTROL_DESIGN' ));
ENDSEC;

DATA;
#1 = CYLINDRICAL_SURFACE ( 'NONE', #120, 0.5000000000000003331 ) ;
#2 = FACE_OUTER_BOUND ( 'NONE', #35, .T. ) ;
#3 = CARTESIAN_POINT ( 'NONE',  ( 1.007903845425829056E-15, 0.4999999999999991673, 0.2886751345948157521 ) ) ;
#4 =( NAMED_UNIT ( * ) PLANE_ANGLE_UNIT ( ) SI_UNIT ( $, .RADIAN. ) );
#5 = EDGE_CURVE ( 'NONE', #196, #196, #207, .T. ) ;
#6 = CARTESIAN_POINT ( 'NONE',  ( 3.142333204958820651E-14, -1.102182119232617911E-15, 9.000000000000001776 ) ) ;
#7 = DIRECTION ( 'NONE',  ( 0.0000000000000000000, 1.000000000000000000, 0.0000000000000000000 ) ) ;
#8 = ADVANCED_FACE ( 'NONE', ( #151 ), #222, .F. ) ;
#9 = APPROVAL_ROLE ( '' ) ;
#10 = AXIS2_PLACEMENT_3D ( 'NONE', #160, #161, #27 ) ;
#11 = CARTESIAN_POINT ( 'NONE',  ( 0.0000000000000000000, 0.0000000000000000000, 0.0000000000000000000 ) ) ;
#12 = APPLICATION_CONTEXT ( 'configuration controlled 3d designs of mechanical parts and assemblies' ) ;
#13 = DIRECTION ( 'NONE',  ( 1.000000000000000000, 0.0000000000000000000, 0.0000000000000000000 ) ) ;
#14 = CC_DESIGN_DATE_AND_TIME_ASSIGNMENT ( #101, #167, ( #93 ) ) ;
#15 = APPROVAL_ROLE ( '' ) ;
#16 = CALENDAR_DATE ( 2021, 8, 10 ) ;
#17 = APPROVAL ( #100, 'UNSPECIFIED' ) ;
#18 = ORIENTED_EDGE ( 'NONE', *, *, #208, .F. ) ;
#19 = CLOSED_SHELL ( 'NONE', ( #8, #29, #214, #92, #203 ) ) ;
#20 = ORIENTED_EDGE ( 'NONE', *, *, #220, .T. ) ;
#21 = CIRCLE ( 'NONE', #145, 0.5000000000000015543 ) ;
#22 = FACE_OUTER_BOUND ( 'NONE', #138, .T. ) ;
#23 = AXIS2_PLACEMENT_3D ( 'NONE', #108, #94, #210 ) ;
#24 = VERTEX_POINT ( 'NONE', #175 ) ;
#25 = CARTESIAN_POINT ( 'NONE',  ( 3.293518781772692712E-14, -1.155210881168863023E-15, 9.433012701892218743 ) ) ;
#26 = DIRECTION ( 'NONE',  ( 0.0000000000000000000, 1.000000000000000000, 0.0000000000000000000 ) ) ;
#27 = DIRECTION ( 'NONE',  ( 4.275831445896958607E-31, 1.000000000000000000, 1.224646799147353207E-16 ) ) ;
#28 = PERSON_AND_ORGANIZATION_ROLE ( 'creator' ) ;
#29 = ADVANCED_FACE ( 'NONE', ( #104, #2 ), #58, .T. ) ;
#30 = COORDINATED_UNIVERSAL_TIME_OFFSET ( 1, 0, .AHEAD. ) ;
#31 = PERSON_AND_ORGANIZATION_ROLE ( 'design_owner' ) ;
#32 = APPROVAL_STATUS ( 'not_yet_approved' ) ;
#33 = AXIS2_PLACEMENT_3D ( 'NONE', #125, #128, #37 ) ;
#34 = EDGE_LOOP ( 'NONE', ( #189 ) ) ;
#35 = EDGE_LOOP ( 'NONE', ( #106 ) ) ;
#36 = FACE_OUTER_BOUND ( 'NONE', #87, .T. ) ;
#37 = DIRECTION ( 'NONE',  ( -3.851859888774478275E-31, -1.000000000000000000, -1.084202172485506283E-16 ) ) ;
#38 = DIRECTION ( 'NONE',  ( -3.491481338843133355E-15, 1.224646799147353207E-16, -1.000000000000000000 ) ) ;
#39 =( GEOMETRIC_REPRESENTATION_CONTEXT ( 3 ) GLOBAL_UNCERTAINTY_ASSIGNED_CONTEXT ( ( #200 ) ) GLOBAL_UNIT_ASSIGNED_CONTEXT ( ( #40, #4, #184 ) ) REPRESENTATION_CONTEXT ( 'NONE', 'WORKASPACE' ) );
#40 =( LENGTH_UNIT ( ) NAMED_UNIT ( * ) SI_UNIT ( .MILLI., .METRE. ) );
#41 = DIRECTION ( 'NONE',  ( -4.275831445896958607E-31, -1.000000000000000000, -1.224646799147353207E-16 ) ) ;
#42 = FACE_BOUND ( 'NONE', #206, .T. ) ;
#43 = PRODUCT_RELATED_PRODUCT_CATEGORY ( 'detail', '', ( #163 ) ) ;
#44 = CIRCLE ( 'NONE', #79, 0.4999999999999991673 ) ;
#45 = CALENDAR_DATE ( 2021, 8, 10 ) ;
#46 = CC_DESIGN_APPROVAL ( #139, ( #93 ) ) ;
#47 = CALENDAR_DATE ( 2021, 8, 10 ) ;
#48 = CONICAL_SURFACE ( 'NONE', #33, 0.4999999999999991673, 1.047197551196592746 ) ;
#49 = MECHANICAL_CONTEXT ( 'NONE', #221, 'mechanical' ) ;
#50 = AXIS2_PLACEMENT_3D ( 'NONE', #95, #110, #174 ) ;
#51 = EDGE_LOOP ( 'NONE', ( #140 ) ) ;
#52 = CC_DESIGN_PERSON_AND_ORGANIZATION_ASSIGNMENT ( #119, #31, ( #163 ) ) ;
#53 = ORIENTED_EDGE ( 'NONE', *, *, #199, .T. ) ;
#54 = EDGE_LOOP ( 'NONE', ( #18 ) ) ;
#55 = CC_DESIGN_DATE_AND_TIME_ASSIGNMENT ( #102, #64, ( #96 ) ) ;
#56 = CARTESIAN_POINT ( 'NONE',  ( 3.293518781772692712E-14, 0.7499999999999963363, 9.433012701892218743 ) ) ;
#57 = CYLINDRICAL_SURFACE ( 'NONE', #50, 0.7499999999999986677 ) ;
#58 = CONICAL_SURFACE ( 'NONE', #152, 0.7499999999999975575, 0.5235987755982932645 ) ;
#59 = PLANE ( 'NONE',  #70 ) ;
#60 = ORGANIZATION ( 'UNSPECIFIED', 'UNSPECIFIED', '' ) ;
#61 = AXIS2_PLACEMENT_3D ( 'NONE', #171, #105, #88 ) ;
#62 = AXIS2_PLACEMENT_3D ( 'NONE', #25, #38, #26 ) ;
#63 = ADVANCED_FACE ( 'NONE', ( #191, #36 ), #1, .T. ) ;
#64 = DATE_TIME_ROLE ( 'creation_date' ) ;
#65 = PERSON_AND_ORGANIZATION_ROLE ( 'classification_officer' ) ;
#66 = APPROVAL_PERSON_ORGANIZATION ( #198, #154, #97 ) ;
#67 = CARTESIAN_POINT ( 'NONE',  ( 3.293518781772692712E-14, -1.155210881168863023E-15, 9.433012701892218743 ) ) ;
#68 = CIRCLE ( 'NONE', #137, 0.5000000000000015543 ) ;
#69 = CARTESIAN_POINT ( 'NONE',  ( 0.0000000000000000000, 0.0000000000000000000, 0.0000000000000000000 ) ) ;
#70 = AXIS2_PLACEMENT_3D ( 'NONE', #112, #215, #41 ) ;
#71 = DIRECTION ( 'NONE',  ( 0.0000000000000000000, -1.000000000000000000, 0.0000000000000000000 ) ) ;
#72 = VERTEX_POINT ( 'NONE', #56 ) ;
#73 = APPROVAL_PERSON_ORGANIZATION ( #164, #139, #9 ) ;
#74 = VERTEX_POINT ( 'NONE', #142 ) ;
#75 = CONICAL_SURFACE ( 'NONE', #168, 0.5500000000000000444, 0.7853981633974512766 ) ;
#76 = CARTESIAN_POINT ( 'NONE',  ( 3.142333204958820651E-14, -1.102182119232617911E-15, 9.000000000000001776 ) ) ;
#77 = CARTESIAN_POINT ( 'NONE',  ( 1.047444401652940007E-13, 0.5499999999999963807, 30.00000000000000000 ) ) ;
#78 = APPROVAL_DATE_TIME ( #84, #139 ) ;
#79 = AXIS2_PLACEMENT_3D ( 'NONE', #143, #144, #194 ) ;
#80 = PERSON_AND_ORGANIZATION_ROLE ( 'design_supplier' ) ;
#81 = COORDINATED_UNIVERSAL_TIME_OFFSET ( 1, 0, .AHEAD. ) ;
#82 = CALENDAR_DATE ( 2021, 8, 10 ) ;
#83 = EDGE_CURVE ( 'NONE', #159, #159, #44, .T. ) ;
#84 = DATE_AND_TIME ( #16, #98 ) ;
#85 = DIRECTION ( 'NONE',  ( -4.275831445896958607E-31, -1.000000000000000000, -1.224646799147353207E-16 ) ) ;
#86 = CC_DESIGN_PERSON_AND_ORGANIZATION_ASSIGNMENT ( #131, #28, ( #117 ) ) ;
#87 = EDGE_LOOP ( 'NONE', ( #20 ) ) ;
#88 = DIRECTION ( 'NONE',  ( 0.0000000000000000000, 1.000000000000000000, 0.0000000000000000000 ) ) ;
#89 = LOCAL_TIME ( 7, 53, 41.00000000000000000, #30 ) ;
#90 = CLOSED_SHELL ( 'NONE', ( #127, #63, #124 ) ) ;
#91 = FACE_OUTER_BOUND ( 'NONE', #122, .T. ) ;
#92 = ADVANCED_FACE ( 'NONE', ( #111, #42 ), #75, .T. ) ;
#93 = SECURITY_CLASSIFICATION ( '', '', #219 ) ;
#94 = DIRECTION ( 'NONE',  ( -3.491481338843133355E-15, 1.224646799147353207E-16, -1.000000000000000000 ) ) ;
#95 = CARTESIAN_POINT ( 'NONE',  ( 0.0000000000000000000, 0.0000000000000000000, 0.0000000000000000000 ) ) ;
#96 = PRODUCT_DEFINITION ( 'UNKNOWN', '', #117, #115 ) ;
#97 = APPROVAL_ROLE ( '' ) ;
#98 = LOCAL_TIME ( 7, 53, 41.00000000000000000, #148 ) ;
#99 = AXIS2_PLACEMENT_3D ( 'NONE', #11, #118, #13 ) ;
#100 = APPROVAL_STATUS ( 'not_yet_approved' ) ;
#101 = DATE_AND_TIME ( #47, #202 ) ;
#102 = DATE_AND_TIME ( #218, #89 ) ;
#103 = ORIENTED_EDGE ( 'NONE', *, *, #5, .T. ) ;
#104 = FACE_BOUND ( 'NONE', #54, .T. ) ;
#105 = DIRECTION ( 'NONE',  ( -3.491481338843133355E-15, 1.224646799147353207E-16, -1.000000000000000000 ) ) ;
#106 = ORIENTED_EDGE ( 'NONE', *, *, #134, .T. ) ;
#107 = DIRECTION ( 'NONE',  ( -3.491481338843133355E-15, 1.224646799147353207E-16, -1.000000000000000000 ) ) ;
#108 = CARTESIAN_POINT ( 'NONE',  ( 1.040461438975253740E-13, -3.649447461459112464E-15, 29.80000000000000071 ) ) ;
#109 = FACE_OUTER_BOUND ( 'NONE', #153, .T. ) ;
#110 = DIRECTION ( 'NONE',  ( -3.491481338843133355E-15, 1.224646799147353207E-16, -1.000000000000000000 ) ) ;
#111 = FACE_OUTER_BOUND ( 'NONE', #51, .T. ) ;
#112 = CARTESIAN_POINT ( 'NONE',  ( 3.142333204958820651E-14, -2.086929557694220523E-31, 9.000000000000001776 ) ) ;
#113 = PRODUCT_DEFINITION_SHAPE ( 'NONE', 'NONE',  #96 ) ;
#114 = DATE_AND_TIME ( #82, #205 ) ;
#115 = DESIGN_CONTEXT ( 'detailed design', #12, 'design' ) ;
#116 = DATE_AND_TIME ( #45, #135 ) ;
#117 = PRODUCT_DEFINITION_FORMATION_WITH_SPECIFIED_SOURCE ( 'ANY', '', #163, .NOT_KNOWN. ) ;
#118 = DIRECTION ( 'NONE',  ( 0.0000000000000000000, 0.0000000000000000000, 1.000000000000000000 ) ) ;
#119 = PERSON_AND_ORGANIZATION ( #165, #60 ) ;
#120 = AXIS2_PLACEMENT_3D ( 'NONE', #69, #107, #170 ) ;
#121 = ORIENTED_EDGE ( 'NONE', *, *, #208, .T. ) ;
#122 = EDGE_LOOP ( 'NONE', ( #53 ) ) ;
#123 = EDGE_LOOP ( 'NONE', ( #121 ) ) ;
#124 = ADVANCED_FACE ( 'NONE', ( #192 ), #59, .T. ) ;
#125 = CARTESIAN_POINT ( 'NONE',  ( 1.007903845425828859E-15, -3.535250795749724640E-17, 0.2886751345948156966 ) ) ;
#126 = VERTEX_POINT ( 'NONE', #195 ) ;
#127 = ADVANCED_FACE ( 'NONE', ( #22 ), #48, .T. ) ;
#128 = DIRECTION ( 'NONE',  ( 3.491481338843133355E-15, -1.224646799147353207E-16, 1.000000000000000000 ) ) ;
#129 = APPLICATION_PROTOCOL_DEFINITION ( 'international standard', 'config_control_design', 1994, #221 ) ;
#130 = PERSON_AND_ORGANIZATION ( #165, #60 ) ;
#131 = PERSON_AND_ORGANIZATION ( #165, #60 ) ;
#132 = APPLICATION_PROTOCOL_DEFINITION ( 'international standard', 'config_control_design', 1994, #12 ) ;
#133 = MANIFOLD_SOLID_BREP ( 'Corps-Déplacer/Copier1[2]', #90 ) ;
#134 = EDGE_CURVE ( 'NONE', #72, #72, #157, .T. ) ;
#135 = LOCAL_TIME ( 7, 53, 41.00000000000000000, #81 ) ;
#136 = DIRECTION ( 'NONE',  ( 3.491481338843133355E-15, -1.224646799147353207E-16, 1.000000000000000000 ) ) ;
#137 = AXIS2_PLACEMENT_3D ( 'NONE', #76, #209, #162 ) ;
#138 = EDGE_LOOP ( 'NONE', ( #172 ) ) ;
#139 = APPROVAL ( #166, 'UNSPECIFIED' ) ;
#140 = ORIENTED_EDGE ( 'NONE', *, *, #199, .F. ) ;
#141 = DIRECTION ( 'NONE',  ( 0.0000000000000000000, 1.000000000000000000, 0.0000000000000000000 ) ) ;
#142 = CARTESIAN_POINT ( 'NONE',  ( 3.142333204958820651E-14, 0.5000000000000004441, 9.000000000000001776 ) ) ;
#143 = CARTESIAN_POINT ( 'NONE',  ( 1.007903845425828859E-15, -3.535250795749724640E-17, 0.2886751345948156966 ) ) ;
#144 = DIRECTION ( 'NONE',  ( -3.491481338843133355E-15, 1.224646799147353207E-16, -1.000000000000000000 ) ) ;
#145 = AXIS2_PLACEMENT_3D ( 'NONE', #6, #197, #7 ) ;
#146 = COORDINATED_UNIVERSAL_TIME_OFFSET ( 1, 0, .AHEAD. ) ;
#147 = PERSON_AND_ORGANIZATION ( #165, #60 ) ;
#148 = COORDINATED_UNIVERSAL_TIME_OFFSET ( 1, 0, .AHEAD. ) ;
#149 = CC_DESIGN_SECURITY_CLASSIFICATION ( #93, ( #117 ) ) ;
#150 = CC_DESIGN_APPROVAL ( #154, ( #96 ) ) ;
#151 = FACE_OUTER_BOUND ( 'NONE', #123, .T. ) ;
#152 = AXIS2_PLACEMENT_3D ( 'NONE', #67, #136, #71 ) ;
#153 = EDGE_LOOP ( 'NONE', ( #223 ) ) ;
#154 = APPROVAL ( #32, 'UNSPECIFIED' ) ;
#155 = DIRECTION ( 'NONE',  ( 3.491481338843133355E-15, -1.224646799147353207E-16, 1.000000000000000000 ) ) ;
#156 = ORIENTED_EDGE ( 'NONE', *, *, #83, .F. ) ;
#157 = CIRCLE ( 'NONE', #62, 0.7499999999999975575 ) ;
#158 = CC_DESIGN_PERSON_AND_ORGANIZATION_ASSIGNMENT ( #130, #65, ( #93 ) ) ;
#159 = VERTEX_POINT ( 'NONE', #3 ) ;
#160 = CARTESIAN_POINT ( 'NONE',  ( 1.047444401652940007E-13, 4.124339402320052999E-33, 30.00000000000000000 ) ) ;
#161 = DIRECTION ( 'NONE',  ( -3.491481338843133355E-15, 1.224646799147353207E-16, -1.000000000000000000 ) ) ;
#162 = DIRECTION ( 'NONE',  ( 0.0000000000000000000, 1.000000000000000000, 0.0000000000000000000 ) ) ;
#163 = PRODUCT ( '184', '184', '', ( #49 ) ) ;
#164 = PERSON_AND_ORGANIZATION ( #165, #60 ) ;
#165 = PERSON ( 'UNSPECIFIED', 'UNSPECIFIED', 'UNSPECIFIED', ('UNSPECIFIED'), ('UNSPECIFIED'), ('UNSPECIFIED') ) ;
#166 = APPROVAL_STATUS ( 'not_yet_approved' ) ;
#167 = DATE_TIME_ROLE ( 'classification_date' ) ;
#168 = AXIS2_PLACEMENT_3D ( 'NONE', #176, #212, #141 ) ;
#169 = EDGE_LOOP ( 'NONE', ( #156 ) ) ;
#170 = DIRECTION ( 'NONE',  ( 4.275831445896958607E-31, 1.000000000000000000, 1.224646799147353454E-16 ) ) ;
#171 = CARTESIAN_POINT ( 'NONE',  ( 1.047444401652940007E-13, -3.673940397442059178E-15, 30.00000000000000000 ) ) ;
#172 = ORIENTED_EDGE ( 'NONE', *, *, #83, .T. ) ;
#173 = FACE_OUTER_BOUND ( 'NONE', #34, .T. ) ;
#174 = DIRECTION ( 'NONE',  ( 4.275831445896959482E-31, 1.000000000000000000, 1.224646799147353207E-16 ) ) ;
#175 = CARTESIAN_POINT ( 'NONE',  ( 3.142333204958820651E-14, 0.5000000000000004441, 9.000000000000001776 ) ) ;
#176 = CARTESIAN_POINT ( 'NONE',  ( 1.047444401652940007E-13, -3.673940397442059178E-15, 30.00000000000000000 ) ) ;
#177 = CC_DESIGN_PERSON_AND_ORGANIZATION_ASSIGNMENT ( #181, #182, ( #96 ) ) ;
#178 = CC_DESIGN_APPROVAL ( #17, ( #117 ) ) ;
#179 = PLANE ( 'NONE',  #10 ) ;
#180 = APPROVAL_DATE_TIME ( #114, #17 ) ;
#181 = PERSON_AND_ORGANIZATION ( #165, #60 ) ;
#182 = PERSON_AND_ORGANIZATION_ROLE ( 'creator' ) ;
#183 = COORDINATED_UNIVERSAL_TIME_OFFSET ( 1, 0, .AHEAD. ) ;
#184 =( NAMED_UNIT ( * ) SI_UNIT ( $, .STERADIAN. ) SOLID_ANGLE_UNIT ( ) );
#185 = ORIENTED_EDGE ( 'NONE', *, *, #220, .F. ) ;
#186 = CIRCLE ( 'NONE', #23, 0.7500000000000000000 ) ;
#187 = CARTESIAN_POINT ( 'NONE',  ( 3.142333204958820651E-14, -2.086929557694220523E-31, 9.000000000000001776 ) ) ;
#188 = CC_DESIGN_PERSON_AND_ORGANIZATION_ASSIGNMENT ( #201, #80, ( #117 ) ) ;
#189 = ORIENTED_EDGE ( 'NONE', *, *, #134, .F. ) ;
#190 = EDGE_LOOP ( 'NONE', ( #185 ) ) ;
#191 = FACE_OUTER_BOUND ( 'NONE', #169, .T. ) ;
#192 = FACE_OUTER_BOUND ( 'NONE', #190, .T. ) ;
#193 = APPROVAL_PERSON_ORGANIZATION ( #147, #17, #15 ) ;
#194 = DIRECTION ( 'NONE',  ( 3.851859888774478275E-31, 1.000000000000000000, 1.084202172485506283E-16 ) ) ;
#195 = CARTESIAN_POINT ( 'NONE',  ( 1.040461438975253740E-13, 0.7499999999999963363, 29.80000000000000071 ) ) ;
#196 = VERTEX_POINT ( 'NONE', #77 ) ;
#197 = DIRECTION ( 'NONE',  ( -3.491481338843133355E-15, 1.224646799147353207E-16, -1.000000000000000000 ) ) ;
#198 = PERSON_AND_ORGANIZATION ( #165, #60 ) ;
#199 = EDGE_CURVE ( 'NONE', #126, #126, #186, .T. ) ;
#200 = UNCERTAINTY_MEASURE_WITH_UNIT (LENGTH_MEASURE( 1.000000000000000082E-05 ), #40, 'distance_accuracy_value', 'NONE');
#201 = PERSON_AND_ORGANIZATION ( #165, #60 ) ;
#202 = LOCAL_TIME ( 7, 53, 41.00000000000000000, #183 ) ;
#203 = ADVANCED_FACE ( 'NONE', ( #109 ), #179, .F. ) ;
#204 = APPROVAL_DATE_TIME ( #116, #154 ) ;
#205 = LOCAL_TIME ( 7, 53, 41.00000000000000000, #146 ) ;
#206 = EDGE_LOOP ( 'NONE', ( #103 ) ) ;
#207 = CIRCLE ( 'NONE', #61, 0.5500000000000000444 ) ;
#208 = EDGE_CURVE ( 'NONE', #74, #74, #68, .T. ) ;
#209 = DIRECTION ( 'NONE',  ( -3.491481338843133355E-15, 1.224646799147353207E-16, -1.000000000000000000 ) ) ;
#210 = DIRECTION ( 'NONE',  ( 0.0000000000000000000, 1.000000000000000000, 0.0000000000000000000 ) ) ;
#211 = ADVANCED_BREP_SHAPE_REPRESENTATION ( '184', ( #213, #133, #99 ), #39 ) ;
#212 = DIRECTION ( 'NONE',  ( -3.491481338843133355E-15, 1.224646799147353207E-16, -1.000000000000000000 ) ) ;
#213 = MANIFOLD_SOLID_BREP ( 'Corps-Déplacer/Copier1[1]', #19 ) ;
#214 = ADVANCED_FACE ( 'NONE', ( #173, #91 ), #57, .T. ) ;
#215 = DIRECTION ( 'NONE',  ( 3.491481338843133355E-15, -1.224646799147353207E-16, 1.000000000000000000 ) ) ;
#216 = AXIS2_PLACEMENT_3D ( 'NONE', #187, #155, #85 ) ;
#217 = SHAPE_DEFINITION_REPRESENTATION ( #113, #211 ) ;
#218 = CALENDAR_DATE ( 2021, 8, 10 ) ;
#219 = SECURITY_CLASSIFICATION_LEVEL ( 'unclassified' ) ;
#220 = EDGE_CURVE ( 'NONE', #24, #24, #21, .T. ) ;
#221 = APPLICATION_CONTEXT ( 'configuration controlled 3d designs of mechanical parts and assemblies' ) ;
#222 = PLANE ( 'NONE',  #216 ) ;
#223 = ORIENTED_EDGE ( 'NONE', *, *, #5, .F. ) ;
ENDSEC;
END-ISO-10303-21;
