ISO-10303-21;
HEADER;
FILE_DESCRIPTION (( 'STEP AP203' ),
    '1' );
FILE_NAME ('18375.step',
    '2021-12-06T12:58:27',
    ( '' ),
    ( '' ),
    'SwSTEP 2.0',
    'SolidWorks 2019',
    '' );
FILE_SCHEMA (( 'CONFIG_CONTROL_DESIGN' ));
ENDSEC;

DATA;
#1 = PERSON_AND_ORGANIZATION ( #44, #13 ) ;
#2 = ORIENTED_EDGE ( 'NONE', *, *, #87, .F. ) ;
#3 = AXIS2_PLACEMENT_3D ( 'NONE', #83, #30, #81 ) ;
#4 = LOCAL_TIME ( 13, 58, 27.00000000000000000, #128 ) ;
#5 = EDGE_LOOP ( 'NONE', ( #148 ) ) ;
#6 = CARTESIAN_POINT ( 'NONE',  ( 0.0000000000000000000, 4.000000000000000000, 0.0000000000000000000 ) ) ;
#7 = CC_DESIGN_PERSON_AND_ORGANIZATION_ASSIGNMENT ( #91, #138, ( #154 ) ) ;
#8 = EDGE_CURVE ( 'NONE', #135, #135, #45, .T. ) ;
#9 = CARTESIAN_POINT ( 'NONE',  ( 2.094888803305861475E-15, -2.081899558550483023E-16, 0.5999999999999946487 ) ) ;
#10 = PERSON_AND_ORGANIZATION_ROLE ( 'creator' ) ;
#11 = DIRECTION ( 'NONE',  ( -3.491481338843133355E-15, 3.469832597584169434E-16, -1.000000000000000000 ) ) ;
#12 = APPROVAL_DATE_TIME ( #144, #27 ) ;
#13 = ORGANIZATION ( 'UNSPECIFIED', 'UNSPECIFIED', '' ) ;
#14 = PERSON_AND_ORGANIZATION ( #44, #13 ) ;
#15 = APPROVAL_STATUS ( 'not_yet_approved' ) ;
#16 = PERSON_AND_ORGANIZATION_ROLE ( 'design_owner' ) ;
#17 = ORIENTED_EDGE ( 'NONE', *, *, #106, .T. ) ;
#18 = DIRECTION ( 'NONE',  ( 1.211485576337472393E-30, 1.000000000000000000, 3.469832597584169434E-16 ) ) ;
#19 = AXIS2_PLACEMENT_3D ( 'NONE', #162, #43, #18 ) ;
#20 = PRODUCT_RELATED_PRODUCT_CATEGORY ( 'detail', '', ( #70 ) ) ;
#21 = FACE_OUTER_BOUND ( 'NONE', #53, .T. ) ;
#22 = CC_DESIGN_APPROVAL ( #158, ( #143 ) ) ;
#23 = DIRECTION ( 'NONE',  ( -3.491481338843133355E-15, 3.469832597584169434E-16, -1.000000000000000000 ) ) ;
#24 = SECURITY_CLASSIFICATION_LEVEL ( 'unclassified' ) ;
#25 = LOCAL_TIME ( 13, 58, 27.00000000000000000, #41 ) ;
#26 = PERSON_AND_ORGANIZATION ( #44, #13 ) ;
#27 = APPROVAL ( #61, 'UNSPECIFIED' ) ;
#28 = APPROVAL_ROLE ( '' ) ;
#29 = APPLICATION_PROTOCOL_DEFINITION ( 'international standard', 'config_control_design', 1994, #118 ) ;
#30 = DIRECTION ( 'NONE',  ( -3.491481338843133355E-15, 3.469832597584169434E-16, -1.000000000000000000 ) ) ;
#31 = EDGE_LOOP ( 'NONE', ( #17 ) ) ;
#32 = CARTESIAN_POINT ( 'NONE',  ( 2.094888803305879224E-15, 15.00000000000000000, 0.5999999999999998668 ) ) ;
#33 = CARTESIAN_POINT ( 'NONE',  ( 2.736911063134408342E-45, 15.00000000000000000, 0.0000000000000000000 ) ) ;
#34 = LOCAL_TIME ( 13, 58, 27.00000000000000000, #59 ) ;
#35 = CIRCLE ( 'NONE', #95, 15.00000000000000000 ) ;
#36 = CC_DESIGN_APPROVAL ( #119, ( #85 ) ) ;
#37 = ADVANCED_BREP_SHAPE_REPRESENTATION ( '18375', ( #130, #86 ), #102 ) ;
#38 = CC_DESIGN_DATE_AND_TIME_ASSIGNMENT ( #140, #127, ( #143 ) ) ;
#39 = FACE_OUTER_BOUND ( 'NONE', #161, .T. ) ;
#40 = FACE_OUTER_BOUND ( 'NONE', #31, .T. ) ;
#41 = COORDINATED_UNIVERSAL_TIME_OFFSET ( 1, 0, .AHEAD. ) ;
#42 = ORIENTED_EDGE ( 'NONE', *, *, #87, .T. ) ;
#43 = DIRECTION ( 'NONE',  ( -3.491481338843133355E-15, 3.469832597584169434E-16, -1.000000000000000000 ) ) ;
#44 = PERSON ( 'UNSPECIFIED', 'UNSPECIFIED', 'UNSPECIFIED', ('UNSPECIFIED'), ('UNSPECIFIED'), ('UNSPECIFIED') ) ;
#45 = CIRCLE ( 'NONE', #3, 4.000000000000000000 ) ;
#46 = CARTESIAN_POINT ( 'NONE',  ( -1.817228364506208275E-29, 1.805960738288655556E-30, -5.204748896376254052E-15 ) ) ;
#47 = AXIS2_PLACEMENT_3D ( 'NONE', #104, #114, #89 ) ;
#48 = DIRECTION ( 'NONE',  ( 1.211485576337472393E-30, 1.000000000000000000, 3.469832597584169434E-16 ) ) ;
#49 = APPROVAL_STATUS ( 'not_yet_approved' ) ;
#50 = ADVANCED_FACE ( 'NONE', ( #121, #21 ), #169, .T. ) ;
#51 = PERSON_AND_ORGANIZATION_ROLE ( 'creator' ) ;
#52 = APPLICATION_PROTOCOL_DEFINITION ( 'international standard', 'config_control_design', 1994, #82 ) ;
#53 = EDGE_LOOP ( 'NONE', ( #2 ) ) ;
#54 = PERSON_AND_ORGANIZATION ( #44, #13 ) ;
#55 = ORIENTED_EDGE ( 'NONE', *, *, #106, .F. ) ;
#56 = LOCAL_TIME ( 13, 58, 27.00000000000000000, #159 ) ;
#57 = VERTEX_POINT ( 'NONE', #32 ) ;
#58 = CC_DESIGN_DATE_AND_TIME_ASSIGNMENT ( #131, #149, ( #85 ) ) ;
#59 = COORDINATED_UNIVERSAL_TIME_OFFSET ( 1, 0, .AHEAD. ) ;
#60 = CARTESIAN_POINT ( 'NONE',  ( 0.0000000000000000000, 0.0000000000000000000, 0.0000000000000000000 ) ) ;
#61 = APPROVAL_STATUS ( 'not_yet_approved' ) ;
#62 = CARTESIAN_POINT ( 'NONE',  ( 2.094888803305872125E-15, 4.000000000000000000, 0.5999999999999977573 ) ) ;
#63 = COORDINATED_UNIVERSAL_TIME_OFFSET ( 1, 0, .AHEAD. ) ;
#64 = CIRCLE ( 'NONE', #146, 15.00000000000000000 ) ;
#65 = ADVANCED_FACE ( 'NONE', ( #40, #90 ), #116, .T. ) ;
#66 = APPROVAL_PERSON_ORGANIZATION ( #14, #158, #129 ) ;
#67 = CALENDAR_DATE ( 2021, 6, 12 ) ;
#68 = EDGE_LOOP ( 'NONE', ( #55 ) ) ;
#69 = FACE_OUTER_BOUND ( 'NONE', #68, .T. ) ;
#70 = PRODUCT ( '18375', '18375', '', ( #160 ) ) ;
#71 = AXIS2_PLACEMENT_3D ( 'NONE', #60, #166, #155 ) ;
#72 = CALENDAR_DATE ( 2021, 6, 12 ) ;
#73 = DIRECTION ( 'NONE',  ( 3.491481338843133355E-15, -3.469832597584169434E-16, 1.000000000000000000 ) ) ;
#74 = DIRECTION ( 'NONE',  ( 1.206916098482667860E-30, 1.000000000000000000, 3.469446951953614189E-16 ) ) ;
#75 = PERSON_AND_ORGANIZATION ( #44, #13 ) ;
#76 = DATE_AND_TIME ( #115, #165 ) ;
#77 = APPROVAL_PERSON_ORGANIZATION ( #84, #27, #156 ) ;
#78 = PERSON_AND_ORGANIZATION_ROLE ( 'classification_officer' ) ;
#79 = DATE_AND_TIME ( #67, #25 ) ;
#80 = CARTESIAN_POINT ( 'NONE',  ( 0.0000000000000000000, 0.0000000000000000000, 0.0000000000000000000 ) ) ;
#81 = DIRECTION ( 'NONE',  ( 1.211485576337472393E-30, 1.000000000000000000, 3.469832597584169927E-16 ) ) ;
#82 = APPLICATION_CONTEXT ( 'configuration controlled 3d designs of mechanical parts and assemblies' ) ;
#83 = CARTESIAN_POINT ( 'NONE',  ( -4.845942305349889574E-30, 4.815895302103081716E-31, -1.387933039033667971E-15 ) ) ;
#84 = PERSON_AND_ORGANIZATION ( #44, #13 ) ;
#85 = PRODUCT_DEFINITION ( 'UNKNOWN', '', #154, #101 ) ;
#86 = AXIS2_PLACEMENT_3D ( 'NONE', #80, #147, #107 ) ;
#87 = EDGE_CURVE ( 'NONE', #57, #57, #35, .T. ) ;
#88 = EDGE_CURVE ( 'NONE', #124, #124, #168, .T. ) ;
#89 = DIRECTION ( 'NONE',  ( 1.251854463851703304E-30, 1.000000000000000000, 3.523657060577889411E-16 ) ) ;
#90 = FACE_BOUND ( 'NONE', #109, .T. ) ;
#91 = PERSON_AND_ORGANIZATION ( #44, #13 ) ;
#92 = CALENDAR_DATE ( 2021, 6, 12 ) ;
#93 = APPROVAL_DATE_TIME ( #79, #119 ) ;
#94 = EDGE_LOOP ( 'NONE', ( #96 ) ) ;
#95 = AXIS2_PLACEMENT_3D ( 'NONE', #9, #11, #74 ) ;
#96 = ORIENTED_EDGE ( 'NONE', *, *, #8, .T. ) ;
#97 = CC_DESIGN_PERSON_AND_ORGANIZATION_ASSIGNMENT ( #26, #78, ( #143 ) ) ;
#98 = VERTEX_POINT ( 'NONE', #33 ) ;
#99 =( NAMED_UNIT ( * ) SI_UNIT ( $, .STERADIAN. ) SOLID_ANGLE_UNIT ( ) );
#100 = AXIS2_PLACEMENT_3D ( 'NONE', #62, #73, #125 ) ;
#101 = DESIGN_CONTEXT ( 'detailed design', #82, 'design' ) ;
#102 =( GEOMETRIC_REPRESENTATION_CONTEXT ( 3 ) GLOBAL_UNCERTAINTY_ASSIGNED_CONTEXT ( ( #136 ) ) GLOBAL_UNIT_ASSIGNED_CONTEXT ( ( #123, #164, #99 ) ) REPRESENTATION_CONTEXT ( 'NONE', 'WORKASPACE' ) );
#103 = FACE_OUTER_BOUND ( 'NONE', #5, .T. ) ;
#104 = CARTESIAN_POINT ( 'NONE',  ( 2.094888803305873702E-15, -2.081899558550495596E-16, 0.5999999999999982014 ) ) ;
#105 = APPROVAL_DATE_TIME ( #76, #158 ) ;
#106 = EDGE_CURVE ( 'NONE', #98, #98, #64, .T. ) ;
#107 = DIRECTION ( 'NONE',  ( 1.000000000000000000, 0.0000000000000000000, 0.0000000000000000000 ) ) ;
#108 = PERSON_AND_ORGANIZATION ( #44, #13 ) ;
#109 = EDGE_LOOP ( 'NONE', ( #111 ) ) ;
#110 = AXIS2_PLACEMENT_3D ( 'NONE', #141, #23, #137 ) ;
#111 = ORIENTED_EDGE ( 'NONE', *, *, #8, .F. ) ;
#112 = APPROVAL_PERSON_ORGANIZATION ( #108, #119, #28 ) ;
#113 = CYLINDRICAL_SURFACE ( 'NONE', #19, 15.00000000000000000 ) ;
#114 = DIRECTION ( 'NONE',  ( -3.491481338843133355E-15, 3.469832597584169434E-16, -1.000000000000000000 ) ) ;
#115 = CALENDAR_DATE ( 2021, 6, 12 ) ;
#116 = PLANE ( 'NONE',  #110 ) ;
#117 = CALENDAR_DATE ( 2021, 6, 12 ) ;
#118 = APPLICATION_CONTEXT ( 'configuration controlled 3d designs of mechanical parts and assemblies' ) ;
#119 = APPROVAL ( #15, 'UNSPECIFIED' ) ;
#120 = CLOSED_SHELL ( 'NONE', ( #65, #142, #50, #134 ) ) ;
#121 = FACE_BOUND ( 'NONE', #132, .T. ) ;
#122 = CC_DESIGN_APPROVAL ( #27, ( #154 ) ) ;
#123 =( LENGTH_UNIT ( ) NAMED_UNIT ( * ) SI_UNIT ( .MILLI., .METRE. ) );
#124 = VERTEX_POINT ( 'NONE', #151 ) ;
#125 = DIRECTION ( 'NONE',  ( -1.211485576337472393E-30, -1.000000000000000000, -3.469832597584169434E-16 ) ) ;
#126 = DIRECTION ( 'NONE',  ( -3.491481338843133355E-15, 3.469832597584169434E-16, -1.000000000000000000 ) ) ;
#127 = DATE_TIME_ROLE ( 'classification_date' ) ;
#128 = COORDINATED_UNIVERSAL_TIME_OFFSET ( 1, 0, .AHEAD. ) ;
#129 = APPROVAL_ROLE ( '' ) ;
#130 = MANIFOLD_SOLID_BREP ( 'Corps-Déplacer/Copier1', #120 ) ;
#131 = DATE_AND_TIME ( #92, #56 ) ;
#132 = EDGE_LOOP ( 'NONE', ( #133 ) ) ;
#133 = ORIENTED_EDGE ( 'NONE', *, *, #88, .T. ) ;
#134 = ADVANCED_FACE ( 'NONE', ( #139, #103 ), #157, .F. ) ;
#135 = VERTEX_POINT ( 'NONE', #6 ) ;
#136 = UNCERTAINTY_MEASURE_WITH_UNIT (LENGTH_MEASURE( 1.000000000000000082E-05 ), #123, 'distance_accuracy_value', 'NONE');
#137 = DIRECTION ( 'NONE',  ( 1.211485576337472393E-30, 1.000000000000000000, 3.469832597584169434E-16 ) ) ;
#138 = PERSON_AND_ORGANIZATION_ROLE ( 'design_supplier' ) ;
#139 = FACE_OUTER_BOUND ( 'NONE', #94, .T. ) ;
#140 = DATE_AND_TIME ( #117, #34 ) ;
#141 = CARTESIAN_POINT ( 'NONE',  ( -6.663170669856095887E-30, 4.000000000000000000, -1.908407928671292942E-15 ) ) ;
#142 = ADVANCED_FACE ( 'NONE', ( #39, #69 ), #113, .T. ) ;
#143 = SECURITY_CLASSIFICATION ( '', '', #24 ) ;
#144 = DATE_AND_TIME ( #72, #4 ) ;
#145 = CC_DESIGN_PERSON_AND_ORGANIZATION_ASSIGNMENT ( #1, #16, ( #70 ) ) ;
#146 = AXIS2_PLACEMENT_3D ( 'NONE', #46, #126, #48 ) ;
#147 = DIRECTION ( 'NONE',  ( 0.0000000000000000000, 0.0000000000000000000, 1.000000000000000000 ) ) ;
#148 = ORIENTED_EDGE ( 'NONE', *, *, #88, .F. ) ;
#149 = DATE_TIME_ROLE ( 'creation_date' ) ;
#150 = PRODUCT_DEFINITION_SHAPE ( 'NONE', 'NONE',  #85 ) ;
#151 = CARTESIAN_POINT ( 'NONE',  ( 2.094888803305878435E-15, 4.000000000000000000, 0.5999999999999996447 ) ) ;
#152 = CC_DESIGN_PERSON_AND_ORGANIZATION_ASSIGNMENT ( #75, #10, ( #154 ) ) ;
#153 = CC_DESIGN_SECURITY_CLASSIFICATION ( #143, ( #154 ) ) ;
#154 = PRODUCT_DEFINITION_FORMATION_WITH_SPECIFIED_SOURCE ( 'ANY', '', #70, .NOT_KNOWN. ) ;
#155 = DIRECTION ( 'NONE',  ( 1.211485576337472393E-30, 1.000000000000000000, 3.469832597584169927E-16 ) ) ;
#156 = APPROVAL_ROLE ( '' ) ;
#157 = CYLINDRICAL_SURFACE ( 'NONE', #71, 4.000000000000000000 ) ;
#158 = APPROVAL ( #49, 'UNSPECIFIED' ) ;
#159 = COORDINATED_UNIVERSAL_TIME_OFFSET ( 1, 0, .AHEAD. ) ;
#160 = MECHANICAL_CONTEXT ( 'NONE', #118, 'mechanical' ) ;
#161 = EDGE_LOOP ( 'NONE', ( #42 ) ) ;
#162 = CARTESIAN_POINT ( 'NONE',  ( 0.0000000000000000000, 0.0000000000000000000, 0.0000000000000000000 ) ) ;
#163 = CC_DESIGN_PERSON_AND_ORGANIZATION_ASSIGNMENT ( #54, #51, ( #85 ) ) ;
#164 =( NAMED_UNIT ( * ) PLANE_ANGLE_UNIT ( ) SI_UNIT ( $, .RADIAN. ) );
#165 = LOCAL_TIME ( 13, 58, 27.00000000000000000, #63 ) ;
#166 = DIRECTION ( 'NONE',  ( -3.491481338843133355E-15, 3.469832597584169434E-16, -1.000000000000000000 ) ) ;
#167 = SHAPE_DEFINITION_REPRESENTATION ( #150, #37 ) ;
#168 = CIRCLE ( 'NONE', #47, 4.000000000000000000 ) ;
#169 = PLANE ( 'NONE',  #100 ) ;
ENDSEC;
END-ISO-10303-21;
