ISO-10303-21;
HEADER;
FILE_DESCRIPTION (( 'STEP AP203' ),
    '1' );
FILE_NAME ('182.step',
    '2021-10-08T05:53:41',
    ( '' ),
    ( '' ),
    'SwSTEP 2.0',
    'SolidWorks 2019',
    '' );
FILE_SCHEMA (( 'CONFIG_CONTROL_DESIGN' ));
ENDSEC;

DATA;
#1 = DATE_AND_TIME ( #3, #94 ) ;
#2 = CC_DESIGN_PERSON_AND_ORGANIZATION_ASSIGNMENT ( #201, #103, ( #90 ) ) ;
#3 = CALENDAR_DATE ( 2021, 8, 10 ) ;
#4 = LOCAL_TIME ( 7, 53, 41.00000000000000000, #126 ) ;
#5 = EDGE_LOOP ( 'NONE', ( #110 ) ) ;
#6 = ORIENTED_EDGE ( 'NONE', *, *, #132, .F. ) ;
#7 = PERSON_AND_ORGANIZATION ( #125, #63 ) ;
#8 = EDGE_LOOP ( 'NONE', ( #48 ) ) ;
#9 = ORIENTED_EDGE ( 'NONE', *, *, #132, .T. ) ;
#10 = DIRECTION ( 'NONE',  ( -3.491481338843133355E-15, 1.224646799147353207E-16, -1.000000000000000000 ) ) ;
#11 = DIRECTION ( 'NONE',  ( 4.279844320860531027E-31, 1.000000000000000000, 1.204669080539451316E-16 ) ) ;
#12 = ADVANCED_FACE ( 'NONE', ( #210, #221 ), #57, .T. ) ;
#13 = CARTESIAN_POINT ( 'NONE',  ( 2.660374442755272733E-14, -9.331337417181153424E-16, 7.619615242270665334 ) ) ;
#14 = FACE_OUTER_BOUND ( 'NONE', #76, .T. ) ;
#15 = CARTESIAN_POINT ( 'NONE',  ( 2.478951750578624367E-14, -8.694992273946207746E-16, 7.099999999999999645 ) ) ;
#16 = ADVANCED_FACE ( 'NONE', ( #100 ), #168, .T. ) ;
#17 = APPLICATION_PROTOCOL_DEFINITION ( 'international standard', 'config_control_design', 1994, #187 ) ;
#18 = PERSON_AND_ORGANIZATION ( #125, #63 ) ;
#19 = CALENDAR_DATE ( 2021, 8, 10 ) ;
#20 = CLOSED_SHELL ( 'NONE', ( #16, #92, #193 ) ) ;
#21 = AXIS2_PLACEMENT_3D ( 'NONE', #15, #24, #144 ) ;
#22 = APPROVAL_STATUS ( 'not_yet_approved' ) ;
#23 = PLANE ( 'NONE',  #38 ) ;
#24 = DIRECTION ( 'NONE',  ( -3.491481338843133355E-15, 1.224646799147353207E-16, -1.000000000000000000 ) ) ;
#25 = CARTESIAN_POINT ( 'NONE',  ( 2.478951750578624367E-14, 3.374459510989169354E-33, 7.099999999999999645 ) ) ;
#26 = LOCAL_TIME ( 7, 53, 41.00000000000000000, #174 ) ;
#27 = FACE_OUTER_BOUND ( 'NONE', #154, .T. ) ;
#28 = VERTEX_POINT ( 'NONE', #34 ) ;
#29 = APPROVAL_PERSON_ORGANIZATION ( #74, #53, #189 ) ;
#30 = DIRECTION ( 'NONE',  ( 0.0000000000000000000, 0.0000000000000000000, 1.000000000000000000 ) ) ;
#31 = CARTESIAN_POINT ( 'NONE',  ( 2.478951750578624367E-14, 0.4499999999999994560, 7.099999999999999645 ) ) ;
#32 = CONICAL_SURFACE ( 'NONE', #155, 0.6500000000000000222, 0.7853981633974516097 ) ;
#33 = APPROVAL_STATUS ( 'not_yet_approved' ) ;
#34 = CARTESIAN_POINT ( 'NONE',  ( 9.071134608832463675E-16, 0.4499999999999992339, 0.2598076211353342324 ) ) ;
#35 = CIRCLE ( 'NONE', #21, 0.4500000000000002887 ) ;
#36 = EDGE_CURVE ( 'NONE', #199, #199, #89, .T. ) ;
#37 = DIRECTION ( 'NONE',  ( 0.0000000000000000000, 1.000000000000000000, 0.0000000000000000000 ) ) ;
#38 = AXIS2_PLACEMENT_3D ( 'NONE', #146, #215, #79 ) ;
#39 = DIRECTION ( 'NONE',  ( 3.491481338843133355E-15, -1.224646799147353207E-16, 1.000000000000000000 ) ) ;
#40 = CARTESIAN_POINT ( 'NONE',  ( 1.043952920314096810E-13, 0.7499999999999963363, 29.89999999999999858 ) ) ;
#41 = CIRCLE ( 'NONE', #78, 0.4500000000000002887 ) ;
#42 = DIRECTION ( 'NONE',  ( -3.491481338843133355E-15, 1.224646799147353207E-16, -1.000000000000000000 ) ) ;
#43 = CC_DESIGN_PERSON_AND_ORGANIZATION_ASSIGNMENT ( #7, #72, ( #188 ) ) ;
#44 = PERSON_AND_ORGANIZATION_ROLE ( 'creator' ) ;
#45 = PRODUCT_DEFINITION ( 'UNKNOWN', '', #214, #56 ) ;
#46 = EDGE_LOOP ( 'NONE', ( #206 ) ) ;
#47 = CIRCLE ( 'NONE', #112, 0.7499999999999973355 ) ;
#48 = ORIENTED_EDGE ( 'NONE', *, *, #197, .F. ) ;
#49 = CC_DESIGN_DATE_AND_TIME_ASSIGNMENT ( #1, #61, ( #45 ) ) ;
#50 = APPROVAL_DATE_TIME ( #192, #53 ) ;
#51 = MANIFOLD_SOLID_BREP ( 'Corps-Déplacer/Copier1[1]', #216 ) ;
#52 = MANIFOLD_SOLID_BREP ( 'Corps-Déplacer/Copier1[2]', #20 ) ;
#53 = APPROVAL ( #22, 'UNSPECIFIED' ) ;
#54 = DIRECTION ( 'NONE',  ( 3.491481338843133355E-15, -1.224646799147353207E-16, 1.000000000000000000 ) ) ;
#55 = DIRECTION ( 'NONE',  ( 0.0000000000000000000, 1.000000000000000000, 0.0000000000000000000 ) ) ;
#56 = DESIGN_CONTEXT ( 'detailed design', #187, 'design' ) ;
#57 = CYLINDRICAL_SURFACE ( 'NONE', #202, 0.7499999999999986677 ) ;
#58 = DIRECTION ( 'NONE',  ( -4.275831445896958607E-31, -1.000000000000000000, -1.224646799147353207E-16 ) ) ;
#59 = LOCAL_TIME ( 7, 53, 41.00000000000000000, #205 ) ;
#60 = FACE_BOUND ( 'NONE', #208, .T. ) ;
#61 = DATE_TIME_ROLE ( 'creation_date' ) ;
#62 = EDGE_CURVE ( 'NONE', #181, #181, #41, .T. ) ;
#63 = ORGANIZATION ( 'UNSPECIFIED', 'UNSPECIFIED', '' ) ;
#64 = DATE_AND_TIME ( #151, #158 ) ;
#65 = PRODUCT_DEFINITION_SHAPE ( 'NONE', 'NONE',  #45 ) ;
#66 =( LENGTH_UNIT ( ) NAMED_UNIT ( * ) SI_UNIT ( .MILLI., .METRE. ) );
#67 = PERSON_AND_ORGANIZATION_ROLE ( 'creator' ) ;
#68 = DATE_AND_TIME ( #209, #26 ) ;
#69 = EDGE_LOOP ( 'NONE', ( #70 ) ) ;
#70 = ORIENTED_EDGE ( 'NONE', *, *, #36, .F. ) ;
#71 = AXIS2_PLACEMENT_3D ( 'NONE', #148, #128, #98 ) ;
#72 = PERSON_AND_ORGANIZATION_ROLE ( 'classification_officer' ) ;
#73 = ORIENTED_EDGE ( 'NONE', *, *, #84, .F. ) ;
#74 = PERSON_AND_ORGANIZATION ( #125, #63 ) ;
#75 = CIRCLE ( 'NONE', #173, 0.4499999999999992895 ) ;
#76 = EDGE_LOOP ( 'NONE', ( #93 ) ) ;
#77 = EDGE_LOOP ( 'NONE', ( #91 ) ) ;
#78 = AXIS2_PLACEMENT_3D ( 'NONE', #195, #85, #111 ) ;
#79 = DIRECTION ( 'NONE',  ( 4.275831445896958607E-31, 1.000000000000000000, 1.224646799147353207E-16 ) ) ;
#80 = CYLINDRICAL_SURFACE ( 'NONE', #71, 0.4499999999999997891 ) ;
#81 = AXIS2_PLACEMENT_3D ( 'NONE', #213, #127, #147 ) ;
#82 = DIRECTION ( 'NONE',  ( -3.491481338843133355E-15, 1.224646799147353207E-16, -1.000000000000000000 ) ) ;
#83 = DIRECTION ( 'NONE',  ( 3.491481338843133355E-15, -1.224646799147353207E-16, 1.000000000000000000 ) ) ;
#84 = EDGE_CURVE ( 'NONE', #88, #88, #47, .T. ) ;
#85 = DIRECTION ( 'NONE',  ( -3.491481338843133355E-15, 1.224646799147353207E-16, -1.000000000000000000 ) ) ;
#86 = CC_DESIGN_PERSON_AND_ORGANIZATION_ASSIGNMENT ( #134, #200, ( #214 ) ) ;
#87 = COORDINATED_UNIVERSAL_TIME_OFFSET ( 1, 0, .AHEAD. ) ;
#88 = VERTEX_POINT ( 'NONE', #120 ) ;
#89 = CIRCLE ( 'NONE', #149, 0.7500000000000000000 ) ;
#90 = PRODUCT ( '182', '182', '', ( #169 ) ) ;
#91 = ORIENTED_EDGE ( 'NONE', *, *, #84, .T. ) ;
#92 = ADVANCED_FACE ( 'NONE', ( #133, #177 ), #80, .T. ) ;
#93 = ORIENTED_EDGE ( 'NONE', *, *, #157, .T. ) ;
#94 = LOCAL_TIME ( 7, 53, 41.00000000000000000, #87 ) ;
#95 = ADVANCED_FACE ( 'NONE', ( #218 ), #23, .F. ) ;
#96 = DIRECTION ( 'NONE',  ( 0.0000000000000000000, 1.000000000000000000, 0.0000000000000000000 ) ) ;
#97 = FACE_OUTER_BOUND ( 'NONE', #77, .T. ) ;
#98 = DIRECTION ( 'NONE',  ( 4.275831445896958607E-31, 1.000000000000000000, 1.224646799147353207E-16 ) ) ;
#99 = APPROVAL_PERSON_ORGANIZATION ( #123, #207, #172 ) ;
#100 = FACE_OUTER_BOUND ( 'NONE', #190, .T. ) ;
#101 = DIRECTION ( 'NONE',  ( 0.0000000000000000000, 1.000000000000000000, 0.0000000000000000000 ) ) ;
#102 =( NAMED_UNIT ( * ) SI_UNIT ( $, .STERADIAN. ) SOLID_ANGLE_UNIT ( ) );
#103 = PERSON_AND_ORGANIZATION_ROLE ( 'design_owner' ) ;
#104 = DIRECTION ( 'NONE',  ( 1.000000000000000000, 0.0000000000000000000, 0.0000000000000000000 ) ) ;
#105 =( NAMED_UNIT ( * ) PLANE_ANGLE_UNIT ( ) SI_UNIT ( $, .RADIAN. ) );
#106 = APPLICATION_PROTOCOL_DEFINITION ( 'international standard', 'config_control_design', 1994, #122 ) ;
#107 = ORIENTED_EDGE ( 'NONE', *, *, #197, .T. ) ;
#108 = SHAPE_DEFINITION_REPRESENTATION ( #65, #115 ) ;
#109 = AXIS2_PLACEMENT_3D ( 'NONE', #184, #30, #104 ) ;
#110 = ORIENTED_EDGE ( 'NONE', *, *, #36, .T. ) ;
#111 = DIRECTION ( 'NONE',  ( 0.0000000000000000000, 1.000000000000000000, 0.0000000000000000000 ) ) ;
#112 = AXIS2_PLACEMENT_3D ( 'NONE', #13, #164, #37 ) ;
#113 = CARTESIAN_POINT ( 'NONE',  ( 2.478951750578624367E-14, 3.374459510989169354E-33, 7.099999999999999645 ) ) ;
#114 = UNCERTAINTY_MEASURE_WITH_UNIT (LENGTH_MEASURE( 1.000000000000000082E-05 ), #66, 'distance_accuracy_value', 'NONE');
#115 = ADVANCED_BREP_SHAPE_REPRESENTATION ( '182', ( #51, #52, #109 ), #161 ) ;
#116 = DIRECTION ( 'NONE',  ( -3.491481338843133355E-15, 1.224646799147353207E-16, -1.000000000000000000 ) ) ;
#117 = DIRECTION ( 'NONE',  ( 4.275831445896959482E-31, 1.000000000000000000, 1.224646799147353207E-16 ) ) ;
#118 = CARTESIAN_POINT ( 'NONE',  ( 9.071134608832461703E-16, -3.181725716174752422E-17, 0.2598076211353341769 ) ) ;
#119 = SECURITY_CLASSIFICATION_LEVEL ( 'unclassified' ) ;
#120 = CARTESIAN_POINT ( 'NONE',  ( 2.660374442755272733E-14, 0.7499999999999963363, 7.619615242270665334 ) ) ;
#121 = APPROVAL ( #33, 'UNSPECIFIED' ) ;
#122 = APPLICATION_CONTEXT ( 'configuration controlled 3d designs of mechanical parts and assemblies' ) ;
#123 = PERSON_AND_ORGANIZATION ( #125, #63 ) ;
#124 = ADVANCED_FACE ( 'NONE', ( #159, #217 ), #32, .T. ) ;
#125 = PERSON ( 'UNSPECIFIED', 'UNSPECIFIED', 'UNSPECIFIED', ('UNSPECIFIED'), ('UNSPECIFIED'), ('UNSPECIFIED') ) ;
#126 = COORDINATED_UNIVERSAL_TIME_OFFSET ( 1, 0, .AHEAD. ) ;
#127 = DIRECTION ( 'NONE',  ( 3.491481338843133355E-15, -1.224646799147353207E-16, 1.000000000000000000 ) ) ;
#128 = DIRECTION ( 'NONE',  ( -3.491481338843133355E-15, 1.224646799147353207E-16, -1.000000000000000000 ) ) ;
#129 = CIRCLE ( 'NONE', #175, 0.6500000000000000222 ) ;
#130 = CARTESIAN_POINT ( 'NONE',  ( 1.047444401652940007E-13, -3.673940397442059178E-15, 30.00000000000000000 ) ) ;
#131 = CARTESIAN_POINT ( 'NONE',  ( 1.047444401652940007E-13, -3.673940397442059178E-15, 30.00000000000000000 ) ) ;
#132 = EDGE_CURVE ( 'NONE', #222, #222, #129, .T. ) ;
#133 = FACE_OUTER_BOUND ( 'NONE', #8, .T. ) ;
#134 = PERSON_AND_ORGANIZATION ( #125, #63 ) ;
#135 = PERSON_AND_ORGANIZATION ( #125, #63 ) ;
#136 = PERSON_AND_ORGANIZATION ( #125, #63 ) ;
#137 = CC_DESIGN_DATE_AND_TIME_ASSIGNMENT ( #68, #139, ( #188 ) ) ;
#138 = EDGE_LOOP ( 'NONE', ( #6 ) ) ;
#139 = DATE_TIME_ROLE ( 'classification_date' ) ;
#140 = ORIENTED_EDGE ( 'NONE', *, *, #62, .F. ) ;
#141 = ORIENTED_EDGE ( 'NONE', *, *, #157, .F. ) ;
#142 = CALENDAR_DATE ( 2021, 8, 10 ) ;
#143 = EDGE_LOOP ( 'NONE', ( #9 ) ) ;
#144 = DIRECTION ( 'NONE',  ( 0.0000000000000000000, 1.000000000000000000, 0.0000000000000000000 ) ) ;
#145 = PLANE ( 'NONE',  #219 ) ;
#146 = CARTESIAN_POINT ( 'NONE',  ( 1.047444401652940007E-13, 4.874219293650981803E-33, 30.00000000000000000 ) ) ;
#147 = DIRECTION ( 'NONE',  ( 0.0000000000000000000, -1.000000000000000000, 0.0000000000000000000 ) ) ;
#148 = CARTESIAN_POINT ( 'NONE',  ( 0.0000000000000000000, 0.0000000000000000000, 0.0000000000000000000 ) ) ;
#149 = AXIS2_PLACEMENT_3D ( 'NONE', #196, #42, #96 ) ;
#150 = VERTEX_POINT ( 'NONE', #183 ) ;
#151 = CALENDAR_DATE ( 2021, 8, 10 ) ;
#152 = CC_DESIGN_APPROVAL ( #53, ( #188 ) ) ;
#153 = DATE_AND_TIME ( #19, #59 ) ;
#154 = EDGE_LOOP ( 'NONE', ( #140 ) ) ;
#155 = AXIS2_PLACEMENT_3D ( 'NONE', #131, #116, #55 ) ;
#156 = EDGE_LOOP ( 'NONE', ( #73 ) ) ;
#157 = EDGE_CURVE ( 'NONE', #150, #150, #35, .T. ) ;
#158 = LOCAL_TIME ( 7, 53, 41.00000000000000000, #203 ) ;
#159 = FACE_OUTER_BOUND ( 'NONE', #69, .T. ) ;
#160 = DIRECTION ( 'NONE',  ( -3.491481338843133355E-15, 1.224646799147353207E-16, -1.000000000000000000 ) ) ;
#161 =( GEOMETRIC_REPRESENTATION_CONTEXT ( 3 ) GLOBAL_UNCERTAINTY_ASSIGNED_CONTEXT ( ( #114 ) ) GLOBAL_UNIT_ASSIGNED_CONTEXT ( ( #66, #105, #102 ) ) REPRESENTATION_CONTEXT ( 'NONE', 'WORKASPACE' ) );
#162 = CARTESIAN_POINT ( 'NONE',  ( 0.0000000000000000000, 0.0000000000000000000, 0.0000000000000000000 ) ) ;
#163 = CARTESIAN_POINT ( 'NONE',  ( 9.071134608832461703E-16, -3.181725716174752422E-17, 0.2598076211353341769 ) ) ;
#164 = DIRECTION ( 'NONE',  ( -3.491481338843133355E-15, 1.224646799147353207E-16, -1.000000000000000000 ) ) ;
#165 = ADVANCED_FACE ( 'NONE', ( #60, #97 ), #166, .T. ) ;
#166 = CONICAL_SURFACE ( 'NONE', #81, 0.7499999999999973355, 0.5235987755982925984 ) ;
#167 = APPROVAL_DATE_TIME ( #153, #207 ) ;
#168 = CONICAL_SURFACE ( 'NONE', #212, 0.4499999999999992895, 1.047197551196592746 ) ;
#169 = MECHANICAL_CONTEXT ( 'NONE', #122, 'mechanical' ) ;
#170 = APPROVAL_DATE_TIME ( #64, #121 ) ;
#171 = AXIS2_PLACEMENT_3D ( 'NONE', #113, #39, #178 ) ;
#172 = APPROVAL_ROLE ( '' ) ;
#173 = AXIS2_PLACEMENT_3D ( 'NONE', #163, #160, #11 ) ;
#174 = COORDINATED_UNIVERSAL_TIME_OFFSET ( 1, 0, .AHEAD. ) ;
#175 = AXIS2_PLACEMENT_3D ( 'NONE', #130, #10, #101 ) ;
#176 = CC_DESIGN_PERSON_AND_ORGANIZATION_ASSIGNMENT ( #18, #67, ( #45 ) ) ;
#177 = FACE_OUTER_BOUND ( 'NONE', #46, .T. ) ;
#178 = DIRECTION ( 'NONE',  ( -4.275831445896958607E-31, -1.000000000000000000, -1.224646799147353207E-16 ) ) ;
#179 = CC_DESIGN_SECURITY_CLASSIFICATION ( #188, ( #214 ) ) ;
#180 = DIRECTION ( 'NONE',  ( -4.279844320860531027E-31, -1.000000000000000000, -1.204669080539451316E-16 ) ) ;
#181 = VERTEX_POINT ( 'NONE', #31 ) ;
#182 = CARTESIAN_POINT ( 'NONE',  ( 1.047444401652940007E-13, 0.6499999999999962474, 30.00000000000000000 ) ) ;
#183 = CARTESIAN_POINT ( 'NONE',  ( 2.478951750578624367E-14, 0.4499999999999994560, 7.099999999999999645 ) ) ;
#184 = CARTESIAN_POINT ( 'NONE',  ( 0.0000000000000000000, 0.0000000000000000000, 0.0000000000000000000 ) ) ;
#185 = APPROVAL_ROLE ( '' ) ;
#186 = APPROVAL_STATUS ( 'not_yet_approved' ) ;
#187 = APPLICATION_CONTEXT ( 'configuration controlled 3d designs of mechanical parts and assemblies' ) ;
#188 = SECURITY_CLASSIFICATION ( '', '', #119 ) ;
#189 = APPROVAL_ROLE ( '' ) ;
#190 = EDGE_LOOP ( 'NONE', ( #107 ) ) ;
#191 = CC_DESIGN_PERSON_AND_ORGANIZATION_ASSIGNMENT ( #136, #44, ( #214 ) ) ;
#192 = DATE_AND_TIME ( #142, #4 ) ;
#193 = ADVANCED_FACE ( 'NONE', ( #27 ), #194, .T. ) ;
#194 = PLANE ( 'NONE',  #171 ) ;
#195 = CARTESIAN_POINT ( 'NONE',  ( 2.478951750578624367E-14, -8.694992273946207746E-16, 7.099999999999999645 ) ) ;
#196 = CARTESIAN_POINT ( 'NONE',  ( 1.043952920314096810E-13, -3.661693929450586610E-15, 29.89999999999999858 ) ) ;
#197 = EDGE_CURVE ( 'NONE', #28, #28, #75, .T. ) ;
#198 = APPROVAL_PERSON_ORGANIZATION ( #135, #121, #185 ) ;
#199 = VERTEX_POINT ( 'NONE', #40 ) ;
#200 = PERSON_AND_ORGANIZATION_ROLE ( 'design_supplier' ) ;
#201 = PERSON_AND_ORGANIZATION ( #125, #63 ) ;
#202 = AXIS2_PLACEMENT_3D ( 'NONE', #162, #82, #117 ) ;
#203 = COORDINATED_UNIVERSAL_TIME_OFFSET ( 1, 0, .AHEAD. ) ;
#204 = PRODUCT_RELATED_PRODUCT_CATEGORY ( 'detail', '', ( #90 ) ) ;
#205 = COORDINATED_UNIVERSAL_TIME_OFFSET ( 1, 0, .AHEAD. ) ;
#206 = ORIENTED_EDGE ( 'NONE', *, *, #62, .T. ) ;
#207 = APPROVAL ( #186, 'UNSPECIFIED' ) ;
#208 = EDGE_LOOP ( 'NONE', ( #141 ) ) ;
#209 = CALENDAR_DATE ( 2021, 8, 10 ) ;
#210 = FACE_OUTER_BOUND ( 'NONE', #156, .T. ) ;
#211 = ADVANCED_FACE ( 'NONE', ( #14 ), #145, .F. ) ;
#212 = AXIS2_PLACEMENT_3D ( 'NONE', #118, #54, #180 ) ;
#213 = CARTESIAN_POINT ( 'NONE',  ( 2.660374442755272733E-14, -9.331337417181153424E-16, 7.619615242270665334 ) ) ;
#214 = PRODUCT_DEFINITION_FORMATION_WITH_SPECIFIED_SOURCE ( 'ANY', '', #90, .NOT_KNOWN. ) ;
#215 = DIRECTION ( 'NONE',  ( -3.491481338843133355E-15, 1.224646799147353207E-16, -1.000000000000000000 ) ) ;
#216 = CLOSED_SHELL ( 'NONE', ( #211, #165, #12, #124, #95 ) ) ;
#217 = FACE_BOUND ( 'NONE', #143, .T. ) ;
#218 = FACE_OUTER_BOUND ( 'NONE', #138, .T. ) ;
#219 = AXIS2_PLACEMENT_3D ( 'NONE', #25, #83, #58 ) ;
#220 = CC_DESIGN_APPROVAL ( #121, ( #45 ) ) ;
#221 = FACE_OUTER_BOUND ( 'NONE', #5, .T. ) ;
#222 = VERTEX_POINT ( 'NONE', #182 ) ;
#223 = CC_DESIGN_APPROVAL ( #207, ( #214 ) ) ;
ENDSEC;
END-ISO-10303-21;
