ISO-10303-21;
HEADER;
FILE_DESCRIPTION (( 'STEP AP203' ),
    '1' );
FILE_NAME ('181.step',
    '2021-10-08T05:53:40',
    ( '' ),
    ( '' ),
    'SwSTEP 2.0',
    'SolidWorks 2019',
    '' );
FILE_SCHEMA (( 'CONFIG_CONTROL_DESIGN' ));
ENDSEC;

DATA;
#1 = CLOSED_SHELL ( 'NONE', ( #119, #33, #15 ) ) ;
#2 = CC_DESIGN_APPROVAL ( #85, ( #202 ) ) ;
#3 = DIRECTION ( 'NONE',  ( -3.491481338843133355E-15, 1.224646799147353207E-16, -1.000000000000000000 ) ) ;
#4 = CC_DESIGN_DATE_AND_TIME_ASSIGNMENT ( #64, #156, ( #18 ) ) ;
#5 = APPROVAL_DATE_TIME ( #95, #149 ) ;
#6 = CARTESIAN_POINT ( 'NONE',  ( 2.396174493329209586E-14, -8.404648739799518336E-16, 6.862916512459888096 ) ) ;
#7 = CC_DESIGN_SECURITY_CLASSIFICATION ( #80, ( #202 ) ) ;
#8 = DIRECTION ( 'NONE',  ( 1.000000000000000000, 0.0000000000000000000, 0.0000000000000000000 ) ) ;
#9 = DIRECTION ( 'NONE',  ( 0.0000000000000000000, -1.000000000000000000, 0.0000000000000000000 ) ) ;
#10 = CONICAL_SURFACE ( 'NONE', #87, 0.4249999999999992673, 1.047197551196592746 ) ;
#11 = APPROVAL_ROLE ( '' ) ;
#12 = APPROVAL_DATE_TIME ( #84, #85 ) ;
#13 = ORIENTED_EDGE ( 'NONE', *, *, #120, .T. ) ;
#14 = PERSON_AND_ORGANIZATION ( #94, #105 ) ;
#15 = ADVANCED_FACE ( 'NONE', ( #93 ), #40, .T. ) ;
#16 = EDGE_LOOP ( 'NONE', ( #205 ) ) ;
#17 = PRODUCT_DEFINITION_SHAPE ( 'NONE', 'NONE',  #18 ) ;
#18 = PRODUCT_DEFINITION ( 'UNKNOWN', '', #202, #47 ) ;
#19 = CIRCLE ( 'NONE', #182, 0.4249999999999992673 ) ;
#20 = AXIS2_PLACEMENT_3D ( 'NONE', #6, #58, #9 ) ;
#21 = CARTESIAN_POINT ( 'NONE',  ( 8.567182686119545301E-16, -3.004963176387265389E-17, 0.2453738644055933338 ) ) ;
#22 = CARTESIAN_POINT ( 'NONE',  ( 2.199633243471174329E-14, -7.715274834628326364E-16, 6.300000000000000711 ) ) ;
#23 = CARTESIAN_POINT ( 'NONE',  ( 8.567182686119545301E-16, -3.004963176387265389E-17, 0.2453738644055933338 ) ) ;
#24 = EDGE_LOOP ( 'NONE', ( #193 ) ) ;
#25 = APPROVAL ( #174, 'UNSPECIFIED' ) ;
#26 = LOCAL_TIME ( 7, 53, 40.00000000000000000, #32 ) ;
#27 = DIRECTION ( 'NONE',  ( -4.275831445896958607E-31, -1.000000000000000000, -1.224646799147353207E-16 ) ) ;
#28 = VERTEX_POINT ( 'NONE', #217 ) ;
#29 = CARTESIAN_POINT ( 'NONE',  ( 0.0000000000000000000, 0.0000000000000000000, 0.0000000000000000000 ) ) ;
#30 = VERTEX_POINT ( 'NONE', #181 ) ;
#31 = FACE_BOUND ( 'NONE', #83, .T. ) ;
#32 = COORDINATED_UNIVERSAL_TIME_OFFSET ( 1, 0, .AHEAD. ) ;
#33 = ADVANCED_FACE ( 'NONE', ( #54, #176 ), #145, .T. ) ;
#34 = AXIS2_PLACEMENT_3D ( 'NONE', #22, #74, #71 ) ;
#35 = EDGE_CURVE ( 'NONE', #30, #30, #101, .T. ) ;
#36 = CIRCLE ( 'NONE', #128, 0.7500000000000000000 ) ;
#37 = COORDINATED_UNIVERSAL_TIME_OFFSET ( 1, 0, .AHEAD. ) ;
#38 = DIRECTION ( 'NONE',  ( -3.491481338843133355E-15, 1.224646799147353207E-16, -1.000000000000000000 ) ) ;
#39 = DIRECTION ( 'NONE',  ( -3.491481338843133355E-15, 1.224646799147353207E-16, -1.000000000000000000 ) ) ;
#40 = PLANE ( 'NONE',  #86 ) ;
#41 = DIRECTION ( 'NONE',  ( 4.275831445896958607E-31, 1.000000000000000000, 1.224646799147353207E-16 ) ) ;
#42 = PLANE ( 'NONE',  #139 ) ;
#43 = CC_DESIGN_PERSON_AND_ORGANIZATION_ASSIGNMENT ( #14, #154, ( #80 ) ) ;
#44 = VERTEX_POINT ( 'NONE', #197 ) ;
#45 = CARTESIAN_POINT ( 'NONE',  ( 1.043952920314096810E-13, 0.7499999999999963363, 29.89999999999999858 ) ) ;
#46 = PERSON_AND_ORGANIZATION ( #94, #105 ) ;
#47 = DESIGN_CONTEXT ( 'detailed design', #82, 'design' ) ;
#48 = CALENDAR_DATE ( 2021, 8, 10 ) ;
#49 = SHAPE_DEFINITION_REPRESENTATION ( #17, #89 ) ;
#50 = EDGE_LOOP ( 'NONE', ( #110 ) ) ;
#51 = PRODUCT ( '181', '181', '', ( #97 ) ) ;
#52 = PERSON_AND_ORGANIZATION_ROLE ( 'creator' ) ;
#53 = DIRECTION ( 'NONE',  ( 4.531599869146445287E-31, 1.000000000000000000, 1.275531967630007464E-16 ) ) ;
#54 = FACE_OUTER_BOUND ( 'NONE', #16, .T. ) ;
#55 = CIRCLE ( 'NONE', #148, 0.6500000000000000222 ) ;
#56 = FACE_OUTER_BOUND ( 'NONE', #67, .T. ) ;
#57 = DIRECTION ( 'NONE',  ( 0.0000000000000000000, 1.000000000000000000, 0.0000000000000000000 ) ) ;
#58 = DIRECTION ( 'NONE',  ( 3.491481338843133355E-15, -1.224646799147353207E-16, 1.000000000000000000 ) ) ;
#59 = CYLINDRICAL_SURFACE ( 'NONE', #175, 0.7499999999999985567 ) ;
#60 = APPROVAL_PERSON_ORGANIZATION ( #186, #85, #138 ) ;
#61 = EDGE_CURVE ( 'NONE', #129, #129, #19, .T. ) ;
#62 = APPLICATION_PROTOCOL_DEFINITION ( 'international standard', 'config_control_design', 1994, #82 ) ;
#63 = CALENDAR_DATE ( 2021, 8, 10 ) ;
#64 = DATE_AND_TIME ( #204, #26 ) ;
#65 = ORIENTED_EDGE ( 'NONE', *, *, #35, .T. ) ;
#66 = ORIENTED_EDGE ( 'NONE', *, *, #115, .T. ) ;
#67 = EDGE_LOOP ( 'NONE', ( #207 ) ) ;
#68 = LOCAL_TIME ( 7, 53, 40.00000000000000000, #37 ) ;
#69 = ORIENTED_EDGE ( 'NONE', *, *, #120, .F. ) ;
#70 = ADVANCED_FACE ( 'NONE', ( #177, #160 ), #111, .T. ) ;
#71 = DIRECTION ( 'NONE',  ( 0.0000000000000000000, 1.000000000000000000, 0.0000000000000000000 ) ) ;
#72 =( NAMED_UNIT ( * ) SI_UNIT ( $, .STERADIAN. ) SOLID_ANGLE_UNIT ( ) );
#73 = CC_DESIGN_APPROVAL ( #149, ( #18 ) ) ;
#74 = DIRECTION ( 'NONE',  ( -3.491481338843133355E-15, 1.224646799147353207E-16, -1.000000000000000000 ) ) ;
#75 = ADVANCED_FACE ( 'NONE', ( #56 ), #127, .F. ) ;
#76 = CARTESIAN_POINT ( 'NONE',  ( 1.047444401652940007E-13, -3.673940397442059178E-15, 30.00000000000000000 ) ) ;
#77 = AXIS2_PLACEMENT_3D ( 'NONE', #220, #178, #57 ) ;
#78 = COORDINATED_UNIVERSAL_TIME_OFFSET ( 1, 0, .AHEAD. ) ;
#79 = EDGE_LOOP ( 'NONE', ( #69 ) ) ;
#80 = SECURITY_CLASSIFICATION ( '', '', #219 ) ;
#81 = PERSON_AND_ORGANIZATION ( #94, #105 ) ;
#82 = APPLICATION_CONTEXT ( 'configuration controlled 3d designs of mechanical parts and assemblies' ) ;
#83 = EDGE_LOOP ( 'NONE', ( #194 ) ) ;
#84 = DATE_AND_TIME ( #63, #68 ) ;
#85 = APPROVAL ( #172, 'UNSPECIFIED' ) ;
#86 = AXIS2_PLACEMENT_3D ( 'NONE', #90, #143, #109 ) ;
#87 = AXIS2_PLACEMENT_3D ( 'NONE', #21, #142, #190 ) ;
#88 = CARTESIAN_POINT ( 'NONE',  ( 1.043952920314096810E-13, -3.661693929450586610E-15, 29.89999999999999858 ) ) ;
#89 = ADVANCED_BREP_SHAPE_REPRESENTATION ( '181', ( #130, #203, #102 ), #209 ) ;
#90 = CARTESIAN_POINT ( 'NONE',  ( 2.199633243471174014E-14, 3.186989538156439206E-33, 6.299999999999999822 ) ) ;
#91 = DIRECTION ( 'NONE',  ( 4.275831445896958607E-31, 1.000000000000000000, 1.224646799147353207E-16 ) ) ;
#92 = CC_DESIGN_APPROVAL ( #25, ( #80 ) ) ;
#93 = FACE_OUTER_BOUND ( 'NONE', #50, .T. ) ;
#94 = PERSON ( 'UNSPECIFIED', 'UNSPECIFIED', 'UNSPECIFIED', ('UNSPECIFIED'), ('UNSPECIFIED'), ('UNSPECIFIED') ) ;
#95 = DATE_AND_TIME ( #48, #169 ) ;
#96 = CARTESIAN_POINT ( 'NONE',  ( 2.199633243471174329E-14, 0.4249999999999996003, 6.300000000000000711 ) ) ;
#97 = MECHANICAL_CONTEXT ( 'NONE', #191, 'mechanical' ) ;
#98 =( NAMED_UNIT ( * ) PLANE_ANGLE_UNIT ( ) SI_UNIT ( $, .RADIAN. ) );
#99 = APPLICATION_PROTOCOL_DEFINITION ( 'international standard', 'config_control_design', 1994, #191 ) ;
#100 = CALENDAR_DATE ( 2021, 8, 10 ) ;
#101 = CIRCLE ( 'NONE', #77, 0.4250000000000003775 ) ;
#102 = AXIS2_PLACEMENT_3D ( 'NONE', #133, #183, #8 ) ;
#103 = ADVANCED_FACE ( 'NONE', ( #124 ), #42, .F. ) ;
#104 = EDGE_LOOP ( 'NONE', ( #65 ) ) ;
#105 = ORGANIZATION ( 'UNSPECIFIED', 'UNSPECIFIED', '' ) ;
#106 = DIRECTION ( 'NONE',  ( 0.0000000000000000000, 1.000000000000000000, 0.0000000000000000000 ) ) ;
#107 = LOCAL_TIME ( 7, 53, 40.00000000000000000, #135 ) ;
#108 = DIRECTION ( 'NONE',  ( 0.0000000000000000000, 1.000000000000000000, 0.0000000000000000000 ) ) ;
#109 = DIRECTION ( 'NONE',  ( -4.275831445896958607E-31, -1.000000000000000000, -1.224646799147353207E-16 ) ) ;
#110 = ORIENTED_EDGE ( 'NONE', *, *, #140, .F. ) ;
#111 = CONICAL_SURFACE ( 'NONE', #162, 0.6500000000000000222, 0.7853981633974516097 ) ;
#112 = APPROVAL_PERSON_ORGANIZATION ( #81, #25, #11 ) ;
#113 = CARTESIAN_POINT ( 'NONE',  ( 2.199633243471174014E-14, 3.186989538156439206E-33, 6.299999999999999822 ) ) ;
#114 = FACE_OUTER_BOUND ( 'NONE', #24, .T. ) ;
#115 = EDGE_CURVE ( 'NONE', #44, #44, #158, .T. ) ;
#116 = APPROVAL_PERSON_ORGANIZATION ( #215, #149, #199 ) ;
#117 =( LENGTH_UNIT ( ) NAMED_UNIT ( * ) SI_UNIT ( .MILLI., .METRE. ) );
#118 = VERTEX_POINT ( 'NONE', #96 ) ;
#119 = ADVANCED_FACE ( 'NONE', ( #125 ), #10, .T. ) ;
#120 = EDGE_CURVE ( 'NONE', #151, #151, #36, .T. ) ;
#121 = APPROVAL_DATE_TIME ( #201, #25 ) ;
#122 = ORIENTED_EDGE ( 'NONE', *, *, #161, .T. ) ;
#123 = PERSON_AND_ORGANIZATION ( #94, #105 ) ;
#124 = FACE_OUTER_BOUND ( 'NONE', #104, .T. ) ;
#125 = FACE_OUTER_BOUND ( 'NONE', #211, .T. ) ;
#126 = ORIENTED_EDGE ( 'NONE', *, *, #61, .T. ) ;
#127 = PLANE ( 'NONE',  #144 ) ;
#128 = AXIS2_PLACEMENT_3D ( 'NONE', #88, #39, #108 ) ;
#129 = VERTEX_POINT ( 'NONE', #216 ) ;
#130 = MANIFOLD_SOLID_BREP ( 'Corps-Déplacer/Copier1[1]', #184 ) ;
#131 = DIRECTION ( 'NONE',  ( 4.275831445896959482E-31, 1.000000000000000000, 1.224646799147353454E-16 ) ) ;
#132 = LOCAL_TIME ( 7, 53, 40.00000000000000000, #78 ) ;
#133 = CARTESIAN_POINT ( 'NONE',  ( 0.0000000000000000000, 0.0000000000000000000, 0.0000000000000000000 ) ) ;
#134 = CC_DESIGN_PERSON_AND_ORGANIZATION_ASSIGNMENT ( #46, #198, ( #51 ) ) ;
#135 = COORDINATED_UNIVERSAL_TIME_OFFSET ( 1, 0, .AHEAD. ) ;
#136 = PERSON_AND_ORGANIZATION_ROLE ( 'creator' ) ;
#137 = PERSON_AND_ORGANIZATION ( #94, #105 ) ;
#138 = APPROVAL_ROLE ( '' ) ;
#139 = AXIS2_PLACEMENT_3D ( 'NONE', #113, #179, #27 ) ;
#140 = EDGE_CURVE ( 'NONE', #118, #118, #163, .T. ) ;
#141 = DIRECTION ( 'NONE',  ( -3.491481338843133355E-15, 1.224646799147353207E-16, -1.000000000000000000 ) ) ;
#142 = DIRECTION ( 'NONE',  ( 3.491481338843133355E-15, -1.224646799147353207E-16, 1.000000000000000000 ) ) ;
#143 = DIRECTION ( 'NONE',  ( 3.491481338843133355E-15, -1.224646799147353207E-16, 1.000000000000000000 ) ) ;
#144 = AXIS2_PLACEMENT_3D ( 'NONE', #189, #141, #41 ) ;
#145 = CYLINDRICAL_SURFACE ( 'NONE', #195, 0.4249999999999998224 ) ;
#146 = ORIENTED_EDGE ( 'NONE', *, *, #140, .T. ) ;
#147 = COORDINATED_UNIVERSAL_TIME_OFFSET ( 1, 0, .AHEAD. ) ;
#148 = AXIS2_PLACEMENT_3D ( 'NONE', #76, #165, #196 ) ;
#149 = APPROVAL ( #213, 'UNSPECIFIED' ) ;
#150 = DIRECTION ( 'NONE',  ( -3.491481338843133355E-15, 1.224646799147353207E-16, -1.000000000000000000 ) ) ;
#151 = VERTEX_POINT ( 'NONE', #45 ) ;
#152 = CC_DESIGN_PERSON_AND_ORGANIZATION_ASSIGNMENT ( #137, #185, ( #202 ) ) ;
#153 = DATE_TIME_ROLE ( 'classification_date' ) ;
#154 = PERSON_AND_ORGANIZATION_ROLE ( 'classification_officer' ) ;
#155 = ADVANCED_FACE ( 'NONE', ( #31, #180 ), #173, .T. ) ;
#156 = DATE_TIME_ROLE ( 'creation_date' ) ;
#157 = DIRECTION ( 'NONE',  ( -3.491481338843133355E-15, 1.224646799147353207E-16, -1.000000000000000000 ) ) ;
#158 = CIRCLE ( 'NONE', #214, 0.7499999999999972244 ) ;
#159 = EDGE_LOOP ( 'NONE', ( #66 ) ) ;
#160 = FACE_BOUND ( 'NONE', #192, .T. ) ;
#161 = EDGE_CURVE ( 'NONE', #28, #28, #55, .T. ) ;
#162 = AXIS2_PLACEMENT_3D ( 'NONE', #208, #157, #210 ) ;
#163 = CIRCLE ( 'NONE', #34, 0.4250000000000003775 ) ;
#164 = CARTESIAN_POINT ( 'NONE',  ( 0.0000000000000000000, 0.0000000000000000000, 0.0000000000000000000 ) ) ;
#165 = DIRECTION ( 'NONE',  ( -3.491481338843133355E-15, 1.224646799147353207E-16, -1.000000000000000000 ) ) ;
#166 = ADVANCED_FACE ( 'NONE', ( #114, #167 ), #59, .T. ) ;
#167 = FACE_OUTER_BOUND ( 'NONE', #222, .T. ) ;
#168 = PRODUCT_RELATED_PRODUCT_CATEGORY ( 'detail', '', ( #51 ) ) ;
#169 = LOCAL_TIME ( 7, 53, 40.00000000000000000, #147 ) ;
#170 = DATE_AND_TIME ( #100, #132 ) ;
#171 = CALENDAR_DATE ( 2021, 8, 10 ) ;
#172 = APPROVAL_STATUS ( 'not_yet_approved' ) ;
#173 = CONICAL_SURFACE ( 'NONE', #20, 0.7499999999999972244, 0.5235987755982931535 ) ;
#174 = APPROVAL_STATUS ( 'not_yet_approved' ) ;
#175 = AXIS2_PLACEMENT_3D ( 'NONE', #29, #150, #131 ) ;
#176 = FACE_OUTER_BOUND ( 'NONE', #187, .T. ) ;
#177 = FACE_OUTER_BOUND ( 'NONE', #79, .T. ) ;
#178 = DIRECTION ( 'NONE',  ( -3.491481338843133355E-15, 1.224646799147353207E-16, -1.000000000000000000 ) ) ;
#179 = DIRECTION ( 'NONE',  ( 3.491481338843133355E-15, -1.224646799147353207E-16, 1.000000000000000000 ) ) ;
#180 = FACE_OUTER_BOUND ( 'NONE', #159, .T. ) ;
#181 = CARTESIAN_POINT ( 'NONE',  ( 2.199633243471174329E-14, 0.4249999999999996003, 6.300000000000000711 ) ) ;
#182 = AXIS2_PLACEMENT_3D ( 'NONE', #23, #223, #53 ) ;
#183 = DIRECTION ( 'NONE',  ( 0.0000000000000000000, 0.0000000000000000000, 1.000000000000000000 ) ) ;
#184 = CLOSED_SHELL ( 'NONE', ( #103, #155, #166, #70, #75 ) ) ;
#185 = PERSON_AND_ORGANIZATION_ROLE ( 'design_supplier' ) ;
#186 = PERSON_AND_ORGANIZATION ( #94, #105 ) ;
#187 = EDGE_LOOP ( 'NONE', ( #146 ) ) ;
#188 = CC_DESIGN_PERSON_AND_ORGANIZATION_ASSIGNMENT ( #218, #136, ( #202 ) ) ;
#189 = CARTESIAN_POINT ( 'NONE',  ( 1.047444401652940007E-13, 4.874219293650981803E-33, 30.00000000000000000 ) ) ;
#190 = DIRECTION ( 'NONE',  ( -4.531599869146445287E-31, -1.000000000000000000, -1.275531967630007464E-16 ) ) ;
#191 = APPLICATION_CONTEXT ( 'configuration controlled 3d designs of mechanical parts and assemblies' ) ;
#192 = EDGE_LOOP ( 'NONE', ( #122 ) ) ;
#193 = ORIENTED_EDGE ( 'NONE', *, *, #115, .F. ) ;
#194 = ORIENTED_EDGE ( 'NONE', *, *, #35, .F. ) ;
#195 = AXIS2_PLACEMENT_3D ( 'NONE', #164, #3, #91 ) ;
#196 = DIRECTION ( 'NONE',  ( 0.0000000000000000000, 1.000000000000000000, 0.0000000000000000000 ) ) ;
#197 = CARTESIAN_POINT ( 'NONE',  ( 2.396174493329209586E-14, 0.7499999999999963363, 6.862916512459888096 ) ) ;
#198 = PERSON_AND_ORGANIZATION_ROLE ( 'design_owner' ) ;
#199 = APPROVAL_ROLE ( '' ) ;
#200 = UNCERTAINTY_MEASURE_WITH_UNIT (LENGTH_MEASURE( 1.000000000000000082E-05 ), #117, 'distance_accuracy_value', 'NONE');
#201 = DATE_AND_TIME ( #171, #107 ) ;
#202 = PRODUCT_DEFINITION_FORMATION_WITH_SPECIFIED_SOURCE ( 'ANY', '', #51, .NOT_KNOWN. ) ;
#203 = MANIFOLD_SOLID_BREP ( 'Corps-Déplacer/Copier1[2]', #1 ) ;
#204 = CALENDAR_DATE ( 2021, 8, 10 ) ;
#205 = ORIENTED_EDGE ( 'NONE', *, *, #61, .F. ) ;
#206 = CARTESIAN_POINT ( 'NONE',  ( 2.396174493329209586E-14, -8.404648739799518336E-16, 6.862916512459888096 ) ) ;
#207 = ORIENTED_EDGE ( 'NONE', *, *, #161, .F. ) ;
#208 = CARTESIAN_POINT ( 'NONE',  ( 1.047444401652940007E-13, -3.673940397442059178E-15, 30.00000000000000000 ) ) ;
#209 =( GEOMETRIC_REPRESENTATION_CONTEXT ( 3 ) GLOBAL_UNCERTAINTY_ASSIGNED_CONTEXT ( ( #200 ) ) GLOBAL_UNIT_ASSIGNED_CONTEXT ( ( #117, #98, #72 ) ) REPRESENTATION_CONTEXT ( 'NONE', 'WORKASPACE' ) );
#210 = DIRECTION ( 'NONE',  ( 0.0000000000000000000, 1.000000000000000000, 0.0000000000000000000 ) ) ;
#211 = EDGE_LOOP ( 'NONE', ( #126 ) ) ;
#212 = CC_DESIGN_DATE_AND_TIME_ASSIGNMENT ( #170, #153, ( #80 ) ) ;
#213 = APPROVAL_STATUS ( 'not_yet_approved' ) ;
#214 = AXIS2_PLACEMENT_3D ( 'NONE', #206, #38, #106 ) ;
#215 = PERSON_AND_ORGANIZATION ( #94, #105 ) ;
#216 = CARTESIAN_POINT ( 'NONE',  ( 8.567182686119547274E-16, 0.4249999999999992117, 0.2453738644055933893 ) ) ;
#217 = CARTESIAN_POINT ( 'NONE',  ( 1.047444401652940007E-13, 0.6499999999999962474, 30.00000000000000000 ) ) ;
#218 = PERSON_AND_ORGANIZATION ( #94, #105 ) ;
#219 = SECURITY_CLASSIFICATION_LEVEL ( 'unclassified' ) ;
#220 = CARTESIAN_POINT ( 'NONE',  ( 2.199633243471174329E-14, -7.715274834628326364E-16, 6.300000000000000711 ) ) ;
#221 = CC_DESIGN_PERSON_AND_ORGANIZATION_ASSIGNMENT ( #123, #52, ( #18 ) ) ;
#222 = EDGE_LOOP ( 'NONE', ( #13 ) ) ;
#223 = DIRECTION ( 'NONE',  ( -3.491481338843133355E-15, 1.224646799147353207E-16, -1.000000000000000000 ) ) ;
ENDSEC;
END-ISO-10303-21;
