ISO-10303-21;
HEADER;
FILE_DESCRIPTION (( 'STEP AP203' ),
    '1' );
FILE_NAME ('180.step',
    '2021-10-08T05:53:40',
    ( '' ),
    ( '' ),
    'SwSTEP 2.0',
    'SolidWorks 2019',
    '' );
FILE_SCHEMA (( 'CONFIG_CONTROL_DESIGN' ));
ENDSEC;

DATA;
#1 = CONICAL_SURFACE ( 'NONE', #88, 0.3999999999999993561, 1.047197551196592746 ) ;
#2 = CLOSED_SHELL ( 'NONE', ( #222, #29, #155, #127, #17 ) ) ;
#3 = CALENDAR_DATE ( 2021, 8, 10 ) ;
#4 = DIRECTION ( 'NONE',  ( -3.491481338843133355E-15, 1.224646799147353207E-16, -1.000000000000000000 ) ) ;
#5 = APPROVAL_PERSON_ORGANIZATION ( #143, #75, #223 ) ;
#6 = DIRECTION ( 'NONE',  ( -3.491481338843133355E-15, 1.224646799147353207E-16, -1.000000000000000000 ) ) ;
#7 = EDGE_LOOP ( 'NONE', ( #196 ) ) ;
#8 = EDGE_LOOP ( 'NONE', ( #198 ) ) ;
#9 = CC_DESIGN_APPROVAL ( #60, ( #105 ) ) ;
#10 = EDGE_LOOP ( 'NONE', ( #202 ) ) ;
#11 = VERTEX_POINT ( 'NONE', #136 ) ;
#12 = CARTESIAN_POINT ( 'NONE',  ( 1.043952920314096810E-13, -3.661693929450586610E-15, 29.89999999999999858 ) ) ;
#13 = CIRCLE ( 'NONE', #217, 0.4000000000000000777 ) ;
#14 = DIRECTION ( 'NONE',  ( 0.0000000000000000000, 1.000000000000000000, 0.0000000000000000000 ) ) ;
#15 = VERTEX_POINT ( 'NONE', #118 ) ;
#16 = DIRECTION ( 'NONE',  ( 3.491481338843133355E-15, -1.224646799147353207E-16, 1.000000000000000000 ) ) ;
#17 = ADVANCED_FACE ( 'NONE', ( #166 ), #111, .F. ) ;
#18 = CIRCLE ( 'NONE', #195, 0.4000000000000000777 ) ;
#19 = DATE_AND_TIME ( #35, #142 ) ;
#20 = PERSON_AND_ORGANIZATION ( #92, #44 ) ;
#21 = CC_DESIGN_SECURITY_CLASSIFICATION ( #105, ( #161 ) ) ;
#22 = DATE_AND_TIME ( #178, #134 ) ;
#23 = CALENDAR_DATE ( 2021, 8, 10 ) ;
#24 = EDGE_LOOP ( 'NONE', ( #213 ) ) ;
#25 = DIRECTION ( 'NONE',  ( 0.0000000000000000000, -1.000000000000000000, 0.0000000000000000000 ) ) ;
#26 = EDGE_CURVE ( 'NONE', #11, #11, #189, .T. ) ;
#27 = DIRECTION ( 'NONE',  ( -3.491481338843133355E-15, 1.224646799147353207E-16, -1.000000000000000000 ) ) ;
#28 = DIRECTION ( 'NONE',  ( -3.491481338843133355E-15, 1.224646799147353207E-16, -1.000000000000000000 ) ) ;
#29 = ADVANCED_FACE ( 'NONE', ( #114, #113 ), #99, .T. ) ;
#30 = APPLICATION_CONTEXT ( 'configuration controlled 3d designs of mechanical parts and assemblies' ) ;
#31 = DIRECTION ( 'NONE',  ( -3.491481338843133355E-15, 1.224646799147353207E-16, -1.000000000000000000 ) ) ;
#32 = VERTEX_POINT ( 'NONE', #79 ) ;
#33 = DIRECTION ( 'NONE',  ( 3.491481338843133355E-15, -1.224646799147353207E-16, 1.000000000000000000 ) ) ;
#34 = PRODUCT_DEFINITION ( 'UNKNOWN', '', #161, #45 ) ;
#35 = CALENDAR_DATE ( 2021, 8, 10 ) ;
#36 = PERSON_AND_ORGANIZATION ( #92, #44 ) ;
#37 = COORDINATED_UNIVERSAL_TIME_OFFSET ( 1, 0, .AHEAD. ) ;
#38 = DIRECTION ( 'NONE',  ( 1.000000000000000000, 0.0000000000000000000, 0.0000000000000000000 ) ) ;
#39 = CARTESIAN_POINT ( 'NONE',  ( 0.0000000000000000000, 0.0000000000000000000, 0.0000000000000000000 ) ) ;
#40 = FACE_BOUND ( 'NONE', #10, .T. ) ;
#41 = CARTESIAN_POINT ( 'NONE',  ( 8.063230763406630872E-16, -2.828200636599779588E-17, 0.2309401076758525739 ) ) ;
#42 = AXIS2_PLACEMENT_3D ( 'NONE', #131, #125, #77 ) ;
#43 = FACE_OUTER_BOUND ( 'NONE', #73, .T. ) ;
#44 = ORGANIZATION ( 'UNSPECIFIED', 'UNSPECIFIED', '' ) ;
#45 = DESIGN_CONTEXT ( 'detailed design', #30, 'design' ) ;
#46 =( LENGTH_UNIT ( ) NAMED_UNIT ( * ) SI_UNIT ( .MILLI., .METRE. ) );
#47 = CARTESIAN_POINT ( 'NONE',  ( 2.199633243471174014E-14, -7.715274834628325378E-16, 6.299999999999999822 ) ) ;
#48 = DIRECTION ( 'NONE',  ( 4.275831445896959482E-31, 1.000000000000000000, 1.224646799147353454E-16 ) ) ;
#49 = CARTESIAN_POINT ( 'NONE',  ( 2.199633243471174014E-14, 2.999519565323704610E-33, 6.299999999999999822 ) ) ;
#50 = PERSON_AND_ORGANIZATION_ROLE ( 'creator' ) ;
#51 = PERSON_AND_ORGANIZATION ( #92, #44 ) ;
#52 = MANIFOLD_SOLID_BREP ( 'Corps-Déplacer/Copier1[2]', #130 ) ;
#53 = ORIENTED_EDGE ( 'NONE', *, *, #186, .F. ) ;
#54 = ADVANCED_BREP_SHAPE_REPRESENTATION ( '180', ( #205, #52, #146 ), #93 ) ;
#55 = DIRECTION ( 'NONE',  ( -3.491481338843133355E-15, 1.224646799147353207E-16, -1.000000000000000000 ) ) ;
#56 = ORIENTED_EDGE ( 'NONE', *, *, #200, .T. ) ;
#57 = DIRECTION ( 'NONE',  ( 4.275831445896958607E-31, 1.000000000000000000, 1.224646799147353207E-16 ) ) ;
#58 = CARTESIAN_POINT ( 'NONE',  ( 2.411293051010597108E-14, -8.457677501735764631E-16, 6.906217782649110681 ) ) ;
#59 = CARTESIAN_POINT ( 'NONE',  ( 1.043952920314096810E-13, 0.7499999999999963363, 29.89999999999999858 ) ) ;
#60 = APPROVAL ( #140, 'UNSPECIFIED' ) ;
#61 = DIRECTION ( 'NONE',  ( -3.491481338843133355E-15, 1.224646799147353207E-16, -1.000000000000000000 ) ) ;
#62 = FACE_OUTER_BOUND ( 'NONE', #94, .T. ) ;
#63 = CARTESIAN_POINT ( 'NONE',  ( 2.411293051010597108E-14, -8.457677501735764631E-16, 6.906217782649110681 ) ) ;
#64 = APPROVAL_PERSON_ORGANIZATION ( #139, #60, #163 ) ;
#65 = PRODUCT_RELATED_PRODUCT_CATEGORY ( 'detail', '', ( #72 ) ) ;
#66 = CALENDAR_DATE ( 2021, 8, 10 ) ;
#67 = APPROVAL_PERSON_ORGANIZATION ( #36, #90, #191 ) ;
#68 = PERSON_AND_ORGANIZATION ( #92, #44 ) ;
#69 = AXIS2_PLACEMENT_3D ( 'NONE', #39, #4, #71 ) ;
#70 = AXIS2_PLACEMENT_3D ( 'NONE', #154, #16, #219 ) ;
#71 = DIRECTION ( 'NONE',  ( 4.275831445896958607E-31, 1.000000000000000000, 1.224646799147353207E-16 ) ) ;
#72 = PRODUCT ( '180', '180', '', ( #192 ) ) ;
#73 = EDGE_LOOP ( 'NONE', ( #74 ) ) ;
#74 = ORIENTED_EDGE ( 'NONE', *, *, #171, .T. ) ;
#75 = APPROVAL ( #122, 'UNSPECIFIED' ) ;
#76 = ORIENTED_EDGE ( 'NONE', *, *, #26, .F. ) ;
#77 = DIRECTION ( 'NONE',  ( 0.0000000000000000000, 1.000000000000000000, 0.0000000000000000000 ) ) ;
#78 = CC_DESIGN_PERSON_AND_ORGANIZATION_ASSIGNMENT ( #193, #85, ( #161 ) ) ;
#79 = CARTESIAN_POINT ( 'NONE',  ( 2.411293051010597108E-14, 0.7499999999999963363, 6.906217782649110681 ) ) ;
#80 = DIRECTION ( 'NONE',  ( 4.814824860968097515E-31, 1.000000000000000000, 1.355252715606882761E-16 ) ) ;
#81 = FACE_OUTER_BOUND ( 'NONE', #24, .T. ) ;
#82 = CARTESIAN_POINT ( 'NONE',  ( 2.199633243471174014E-14, 0.3999999999999993006, 6.299999999999999822 ) ) ;
#83 = DIRECTION ( 'NONE',  ( -3.491481338843133355E-15, 1.224646799147353207E-16, -1.000000000000000000 ) ) ;
#84 = LOCAL_TIME ( 7, 53, 40.00000000000000000, #37 ) ;
#85 = PERSON_AND_ORGANIZATION_ROLE ( 'design_supplier' ) ;
#86 = APPROVAL_DATE_TIME ( #145, #60 ) ;
#87 = APPLICATION_PROTOCOL_DEFINITION ( 'international standard', 'config_control_design', 1994, #30 ) ;
#88 = AXIS2_PLACEMENT_3D ( 'NONE', #41, #33, #169 ) ;
#89 = DATE_TIME_ROLE ( 'classification_date' ) ;
#90 = APPROVAL ( #174, 'UNSPECIFIED' ) ;
#91 = EDGE_LOOP ( 'NONE', ( #76 ) ) ;
#92 = PERSON ( 'UNSPECIFIED', 'UNSPECIFIED', 'UNSPECIFIED', ('UNSPECIFIED'), ('UNSPECIFIED'), ('UNSPECIFIED') ) ;
#93 =( GEOMETRIC_REPRESENTATION_CONTEXT ( 3 ) GLOBAL_UNCERTAINTY_ASSIGNED_CONTEXT ( ( #133 ) ) GLOBAL_UNIT_ASSIGNED_CONTEXT ( ( #46, #120, #218 ) ) REPRESENTATION_CONTEXT ( 'NONE', 'WORKASPACE' ) );
#94 = EDGE_LOOP ( 'NONE', ( #56 ) ) ;
#95 = CC_DESIGN_PERSON_AND_ORGANIZATION_ASSIGNMENT ( #210, #109, ( #34 ) ) ;
#96 = DIRECTION ( 'NONE',  ( -3.491481338843133355E-15, 1.224646799147353207E-16, -1.000000000000000000 ) ) ;
#97 = FACE_OUTER_BOUND ( 'NONE', #7, .T. ) ;
#98 = LOCAL_TIME ( 7, 53, 40.00000000000000000, #194 ) ;
#99 = CONICAL_SURFACE ( 'NONE', #162, 0.7499999999999972244, 0.5235987755982928205 ) ;
#100 = ADVANCED_FACE ( 'NONE', ( #203, #43 ), #153, .T. ) ;
#101 = DIRECTION ( 'NONE',  ( 3.491481338843133355E-15, -1.224646799147353207E-16, 1.000000000000000000 ) ) ;
#102 = PLANE ( 'NONE',  #70 ) ;
#103 = DATE_AND_TIME ( #23, #84 ) ;
#104 = CC_DESIGN_PERSON_AND_ORGANIZATION_ASSIGNMENT ( #51, #107, ( #105 ) ) ;
#105 = SECURITY_CLASSIFICATION ( '', '', #141 ) ;
#106 = APPROVAL_DATE_TIME ( #19, #90 ) ;
#107 = PERSON_AND_ORGANIZATION_ROLE ( 'classification_officer' ) ;
#108 = AXIS2_PLACEMENT_3D ( 'NONE', #135, #83, #48 ) ;
#109 = PERSON_AND_ORGANIZATION_ROLE ( 'creator' ) ;
#110 = ORIENTED_EDGE ( 'NONE', *, *, #211, .T. ) ;
#111 = PLANE ( 'NONE',  #201 ) ;
#112 = CIRCLE ( 'NONE', #221, 0.7500000000000000000 ) ;
#113 = FACE_OUTER_BOUND ( 'NONE', #180, .T. ) ;
#114 = FACE_BOUND ( 'NONE', #212, .T. ) ;
#115 = EDGE_LOOP ( 'NONE', ( #110 ) ) ;
#116 = CIRCLE ( 'NONE', #179, 0.7499999999999972244 ) ;
#117 = APPLICATION_PROTOCOL_DEFINITION ( 'international standard', 'config_control_design', 1994, #175 ) ;
#118 = CARTESIAN_POINT ( 'NONE',  ( 2.199633243471174014E-14, 0.3999999999999993006, 6.299999999999999822 ) ) ;
#119 = CARTESIAN_POINT ( 'NONE',  ( 8.063230763406630872E-16, -2.828200636599779588E-17, 0.2309401076758525739 ) ) ;
#120 =( NAMED_UNIT ( * ) PLANE_ANGLE_UNIT ( ) SI_UNIT ( $, .RADIAN. ) );
#121 = DIRECTION ( 'NONE',  ( 0.0000000000000000000, 0.0000000000000000000, 1.000000000000000000 ) ) ;
#122 = APPROVAL_STATUS ( 'not_yet_approved' ) ;
#123 = CARTESIAN_POINT ( 'NONE',  ( 0.0000000000000000000, 0.0000000000000000000, 0.0000000000000000000 ) ) ;
#124 = PRODUCT_DEFINITION_SHAPE ( 'NONE', 'NONE',  #34 ) ;
#125 = DIRECTION ( 'NONE',  ( -3.491481338843133355E-15, 1.224646799147353207E-16, -1.000000000000000000 ) ) ;
#126 = FACE_OUTER_BOUND ( 'NONE', #129, .T. ) ;
#127 = ADVANCED_FACE ( 'NONE', ( #126, #40 ), #184, .T. ) ;
#128 = FACE_OUTER_BOUND ( 'NONE', #115, .T. ) ;
#129 = EDGE_LOOP ( 'NONE', ( #53 ) ) ;
#130 = CLOSED_SHELL ( 'NONE', ( #132, #100, #144 ) ) ;
#131 = CARTESIAN_POINT ( 'NONE',  ( 1.047444401652940007E-13, -3.673940397442059178E-15, 30.00000000000000000 ) ) ;
#132 = ADVANCED_FACE ( 'NONE', ( #128 ), #1, .T. ) ;
#133 = UNCERTAINTY_MEASURE_WITH_UNIT (LENGTH_MEASURE( 1.000000000000000082E-05 ), #46, 'distance_accuracy_value', 'NONE');
#134 = LOCAL_TIME ( 7, 53, 40.00000000000000000, #172 ) ;
#135 = CARTESIAN_POINT ( 'NONE',  ( 0.0000000000000000000, 0.0000000000000000000, 0.0000000000000000000 ) ) ;
#136 = CARTESIAN_POINT ( 'NONE',  ( 1.047444401652940007E-13, 0.6499999999999962474, 30.00000000000000000 ) ) ;
#137 = CARTESIAN_POINT ( 'NONE',  ( 2.199633243471174014E-14, -7.715274834628325378E-16, 6.299999999999999822 ) ) ;
#138 = EDGE_CURVE ( 'NONE', #32, #32, #116, .T. ) ;
#139 = PERSON_AND_ORGANIZATION ( #92, #44 ) ;
#140 = APPROVAL_STATUS ( 'not_yet_approved' ) ;
#141 = SECURITY_CLASSIFICATION_LEVEL ( 'unclassified' ) ;
#142 = LOCAL_TIME ( 7, 53, 40.00000000000000000, #190 ) ;
#143 = PERSON_AND_ORGANIZATION ( #92, #44 ) ;
#144 = ADVANCED_FACE ( 'NONE', ( #81 ), #102, .T. ) ;
#145 = DATE_AND_TIME ( #3, #98 ) ;
#146 = AXIS2_PLACEMENT_3D ( 'NONE', #123, #121, #38 ) ;
#147 = CC_DESIGN_PERSON_AND_ORGANIZATION_ASSIGNMENT ( #68, #158, ( #72 ) ) ;
#148 = EDGE_LOOP ( 'NONE', ( #150 ) ) ;
#149 = DIRECTION ( 'NONE',  ( 0.0000000000000000000, 1.000000000000000000, 0.0000000000000000000 ) ) ;
#150 = ORIENTED_EDGE ( 'NONE', *, *, #211, .F. ) ;
#151 = CARTESIAN_POINT ( 'NONE',  ( 1.047444401652940007E-13, 4.874219293650981803E-33, 30.00000000000000000 ) ) ;
#152 = CC_DESIGN_DATE_AND_TIME_ASSIGNMENT ( #159, #160, ( #34 ) ) ;
#153 = CYLINDRICAL_SURFACE ( 'NONE', #69, 0.3999999999999997446 ) ;
#154 = CARTESIAN_POINT ( 'NONE',  ( 2.199633243471174014E-14, 2.999519565323704610E-33, 6.299999999999999822 ) ) ;
#155 = ADVANCED_FACE ( 'NONE', ( #170, #97 ), #207, .T. ) ;
#156 = DIRECTION ( 'NONE',  ( 0.0000000000000000000, 1.000000000000000000, 0.0000000000000000000 ) ) ;
#157 = CC_DESIGN_PERSON_AND_ORGANIZATION_ASSIGNMENT ( #20, #50, ( #161 ) ) ;
#158 = PERSON_AND_ORGANIZATION_ROLE ( 'design_owner' ) ;
#159 = DATE_AND_TIME ( #66, #199 ) ;
#160 = DATE_TIME_ROLE ( 'creation_date' ) ;
#161 = PRODUCT_DEFINITION_FORMATION_WITH_SPECIFIED_SOURCE ( 'ANY', '', #72, .NOT_KNOWN. ) ;
#162 = AXIS2_PLACEMENT_3D ( 'NONE', #58, #183, #25 ) ;
#163 = APPROVAL_ROLE ( '' ) ;
#164 = ORIENTED_EDGE ( 'NONE', *, *, #138, .T. ) ;
#165 = CARTESIAN_POINT ( 'NONE',  ( 1.047444401652940007E-13, -3.673940397442059178E-15, 30.00000000000000000 ) ) ;
#166 = FACE_OUTER_BOUND ( 'NONE', #91, .T. ) ;
#167 = PLANE ( 'NONE',  #214 ) ;
#168 = AXIS2_PLACEMENT_3D ( 'NONE', #165, #6, #149 ) ;
#169 = DIRECTION ( 'NONE',  ( -4.814824860968097515E-31, -1.000000000000000000, -1.355252715606882761E-16 ) ) ;
#170 = FACE_OUTER_BOUND ( 'NONE', #8, .T. ) ;
#171 = EDGE_CURVE ( 'NONE', #15, #15, #13, .T. ) ;
#172 = COORDINATED_UNIVERSAL_TIME_OFFSET ( 1, 0, .AHEAD. ) ;
#173 = CC_DESIGN_APPROVAL ( #90, ( #34 ) ) ;
#174 = APPROVAL_STATUS ( 'not_yet_approved' ) ;
#175 = APPLICATION_CONTEXT ( 'configuration controlled 3d designs of mechanical parts and assemblies' ) ;
#176 = CC_DESIGN_DATE_AND_TIME_ASSIGNMENT ( #22, #89, ( #105 ) ) ;
#177 = COORDINATED_UNIVERSAL_TIME_OFFSET ( 1, 0, .AHEAD. ) ;
#178 = CALENDAR_DATE ( 2021, 8, 10 ) ;
#179 = AXIS2_PLACEMENT_3D ( 'NONE', #63, #96, #156 ) ;
#180 = EDGE_LOOP ( 'NONE', ( #164 ) ) ;
#181 = CC_DESIGN_APPROVAL ( #75, ( #161 ) ) ;
#182 = AXIS2_PLACEMENT_3D ( 'NONE', #119, #61, #80 ) ;
#183 = DIRECTION ( 'NONE',  ( 3.491481338843133355E-15, -1.224646799147353207E-16, 1.000000000000000000 ) ) ;
#184 = CONICAL_SURFACE ( 'NONE', #168, 0.6500000000000000222, 0.7853981633974516097 ) ;
#185 = DIRECTION ( 'NONE',  ( 0.0000000000000000000, 1.000000000000000000, 0.0000000000000000000 ) ) ;
#186 = EDGE_CURVE ( 'NONE', #215, #215, #112, .T. ) ;
#187 = VERTEX_POINT ( 'NONE', #206 ) ;
#188 = DIRECTION ( 'NONE',  ( -4.275831445896958607E-31, -1.000000000000000000, -1.224646799147353207E-16 ) ) ;
#189 = CIRCLE ( 'NONE', #42, 0.6500000000000000222 ) ;
#190 = COORDINATED_UNIVERSAL_TIME_OFFSET ( 1, 0, .AHEAD. ) ;
#191 = APPROVAL_ROLE ( '' ) ;
#192 = MECHANICAL_CONTEXT ( 'NONE', #175, 'mechanical' ) ;
#193 = PERSON_AND_ORGANIZATION ( #92, #44 ) ;
#194 = COORDINATED_UNIVERSAL_TIME_OFFSET ( 1, 0, .AHEAD. ) ;
#195 = AXIS2_PLACEMENT_3D ( 'NONE', #137, #27, #14 ) ;
#196 = ORIENTED_EDGE ( 'NONE', *, *, #186, .T. ) ;
#197 = ORIENTED_EDGE ( 'NONE', *, *, #200, .F. ) ;
#198 = ORIENTED_EDGE ( 'NONE', *, *, #138, .F. ) ;
#199 = LOCAL_TIME ( 7, 53, 40.00000000000000000, #177 ) ;
#200 = EDGE_CURVE ( 'NONE', #216, #216, #18, .T. ) ;
#201 = AXIS2_PLACEMENT_3D ( 'NONE', #151, #55, #57 ) ;
#202 = ORIENTED_EDGE ( 'NONE', *, *, #26, .T. ) ;
#203 = FACE_OUTER_BOUND ( 'NONE', #148, .T. ) ;
#204 = CIRCLE ( 'NONE', #182, 0.3999999999999993561 ) ;
#205 = MANIFOLD_SOLID_BREP ( 'Corps-Déplacer/Copier1[1]', #2 ) ;
#206 = CARTESIAN_POINT ( 'NONE',  ( 8.063230763406632844E-16, 0.3999999999999993006, 0.2309401076758526294 ) ) ;
#207 = CYLINDRICAL_SURFACE ( 'NONE', #108, 0.7499999999999985567 ) ;
#208 = SHAPE_DEFINITION_REPRESENTATION ( #124, #54 ) ;
#209 = APPROVAL_DATE_TIME ( #103, #75 ) ;
#210 = PERSON_AND_ORGANIZATION ( #92, #44 ) ;
#211 = EDGE_CURVE ( 'NONE', #187, #187, #204, .T. ) ;
#212 = EDGE_LOOP ( 'NONE', ( #197 ) ) ;
#213 = ORIENTED_EDGE ( 'NONE', *, *, #171, .F. ) ;
#214 = AXIS2_PLACEMENT_3D ( 'NONE', #49, #101, #188 ) ;
#215 = VERTEX_POINT ( 'NONE', #59 ) ;
#216 = VERTEX_POINT ( 'NONE', #82 ) ;
#217 = AXIS2_PLACEMENT_3D ( 'NONE', #47, #31, #220 ) ;
#218 =( NAMED_UNIT ( * ) SI_UNIT ( $, .STERADIAN. ) SOLID_ANGLE_UNIT ( ) );
#219 = DIRECTION ( 'NONE',  ( -4.275831445896958607E-31, -1.000000000000000000, -1.224646799147353207E-16 ) ) ;
#220 = DIRECTION ( 'NONE',  ( 0.0000000000000000000, 1.000000000000000000, 0.0000000000000000000 ) ) ;
#221 = AXIS2_PLACEMENT_3D ( 'NONE', #12, #28, #185 ) ;
#222 = ADVANCED_FACE ( 'NONE', ( #62 ), #167, .F. ) ;
#223 = APPROVAL_ROLE ( '' ) ;
ENDSEC;
END-ISO-10303-21;
