ISO-10303-21;
HEADER;
FILE_DESCRIPTION (( 'STEP AP203' ),
    '1' );
FILE_NAME ('178.step',
    '2021-10-08T05:53:39',
    ( '' ),
    ( '' ),
    'SwSTEP 2.0',
    'SolidWorks 2019',
    '' );
FILE_SCHEMA (( 'CONFIG_CONTROL_DESIGN' ));
ENDSEC;

DATA;
#1 = CARTESIAN_POINT ( 'NONE',  ( 0.0000000000000000000, 0.0000000000000000000, 0.0000000000000000000 ) ) ;
#2 = LOCAL_TIME ( 7, 53, 39.00000000000000000, #95 ) ;
#3 = FACE_OUTER_BOUND ( 'NONE', #221, .T. ) ;
#4 = DIRECTION ( 'NONE',  ( 5.502656983963538391E-31, 1.000000000000000000, 1.548860246407865555E-16 ) ) ;
#5 =( NAMED_UNIT ( * ) SI_UNIT ( $, .STERADIAN. ) SOLID_ANGLE_UNIT ( ) );
#6 = AXIS2_PLACEMENT_3D ( 'NONE', #173, #23, #4 ) ;
#7 = PERSON_AND_ORGANIZATION ( #61, #60 ) ;
#8 = ADVANCED_FACE ( 'NONE', ( #99, #33 ), #193, .T. ) ;
#9 = APPLICATION_PROTOCOL_DEFINITION ( 'international standard', 'config_control_design', 1994, #142 ) ;
#10 = PERSON_AND_ORGANIZATION ( #61, #60 ) ;
#11 = SECURITY_CLASSIFICATION_LEVEL ( 'unclassified' ) ;
#12 = ADVANCED_FACE ( 'NONE', ( #201 ), #48, .T. ) ;
#13 = DIRECTION ( 'NONE',  ( 3.491481338843133355E-15, -1.224646799147353207E-16, 1.000000000000000000 ) ) ;
#14 = ORIENTED_EDGE ( 'NONE', *, *, #66, .T. ) ;
#15 = CONICAL_SURFACE ( 'NONE', #32, 0.3499999999999995337, 1.047197551196592746 ) ;
#16 = DIRECTION ( 'NONE',  ( -4.275831445896958607E-31, -1.000000000000000000, -1.224646799147353207E-16 ) ) ;
#17 = APPROVAL ( #98, 'UNSPECIFIED' ) ;
#18 = SECURITY_CLASSIFICATION ( '', '', #11 ) ;
#19 = DIRECTION ( 'NONE',  ( -3.491481338843133355E-15, 1.224646799147353207E-16, -1.000000000000000000 ) ) ;
#20 = CC_DESIGN_DATE_AND_TIME_ASSIGNMENT ( #143, #192, ( #116 ) ) ;
#21 = VERTEX_POINT ( 'NONE', #73 ) ;
#22 = FACE_OUTER_BOUND ( 'NONE', #169, .T. ) ;
#23 = DIRECTION ( 'NONE',  ( -3.491481338843133355E-15, 1.224646799147353207E-16, -1.000000000000000000 ) ) ;
#24 = PRODUCT_DEFINITION_SHAPE ( 'NONE', 'NONE',  #116 ) ;
#25 = DIRECTION ( 'NONE',  ( 0.0000000000000000000, 1.000000000000000000, 0.0000000000000000000 ) ) ;
#26 = COORDINATED_UNIVERSAL_TIME_OFFSET ( 1, 0, .AHEAD. ) ;
#27 = APPROVAL_DATE_TIME ( #79, #17 ) ;
#28 = AXIS2_PLACEMENT_3D ( 'NONE', #122, #121, #75 ) ;
#29 = APPROVAL_ROLE ( '' ) ;
#30 = CONICAL_SURFACE ( 'NONE', #151, 0.4000000000000000222, 0.7853981633974512766 ) ;
#31 = PERSON_AND_ORGANIZATION ( #61, #60 ) ;
#32 = AXIS2_PLACEMENT_3D ( 'NONE', #223, #55, #91 ) ;
#33 = FACE_OUTER_BOUND ( 'NONE', #219, .T. ) ;
#34 = EDGE_CURVE ( 'NONE', #133, #133, #78, .T. ) ;
#35 = ORIENTED_EDGE ( 'NONE', *, *, #66, .F. ) ;
#36 = APPLICATION_CONTEXT ( 'configuration controlled 3d designs of mechanical parts and assemblies' ) ;
#37 = CYLINDRICAL_SURFACE ( 'NONE', #112, 0.3499999999999999223 ) ;
#38 = DIRECTION ( 'NONE',  ( 0.0000000000000000000, 1.000000000000000000, 0.0000000000000000000 ) ) ;
#39 = CARTESIAN_POINT ( 'NONE',  ( 1.955229549752154679E-14, -6.858022075225177566E-16, 5.599999999999999645 ) ) ;
#40 = CARTESIAN_POINT ( 'NONE',  ( 1.043952920314096810E-13, -3.661693929450586610E-15, 29.89999999999999858 ) ) ;
#41 = ADVANCED_FACE ( 'NONE', ( #138, #140 ), #37, .T. ) ;
#42 = FACE_OUTER_BOUND ( 'NONE', #152, .T. ) ;
#43 = CC_DESIGN_APPROVAL ( #200, ( #18 ) ) ;
#44 = APPROVAL_ROLE ( '' ) ;
#45 = PERSON_AND_ORGANIZATION_ROLE ( 'design_owner' ) ;
#46 = DESIGN_CONTEXT ( 'detailed design', #36, 'design' ) ;
#47 = DATE_AND_TIME ( #198, #149 ) ;
#48 = PLANE ( 'NONE',  #69 ) ;
#49 = CALENDAR_DATE ( 2021, 8, 10 ) ;
#50 = CC_DESIGN_PERSON_AND_ORGANIZATION_ASSIGNMENT ( #65, #177, ( #83 ) ) ;
#51 = ORIENTED_EDGE ( 'NONE', *, *, #158, .F. ) ;
#52 = ADVANCED_FACE ( 'NONE', ( #191, #105 ), #30, .T. ) ;
#53 = CARTESIAN_POINT ( 'NONE',  ( 1.043952920314096810E-13, 0.4999999999999963363, 29.89999999999999858 ) ) ;
#54 = APPROVAL_PERSON_ORGANIZATION ( #59, #200, #44 ) ;
#55 = DIRECTION ( 'NONE',  ( 3.491481338843133355E-15, -1.224646799147353207E-16, 1.000000000000000000 ) ) ;
#56 = PLANE ( 'NONE',  #28 ) ;
#57 = AXIS2_PLACEMENT_3D ( 'NONE', #211, #190, #170 ) ;
#58 = CYLINDRICAL_SURFACE ( 'NONE', #90, 0.4999999999999985012 ) ;
#59 = PERSON_AND_ORGANIZATION ( #61, #60 ) ;
#60 = ORGANIZATION ( 'UNSPECIFIED', 'UNSPECIFIED', '' ) ;
#61 = PERSON ( 'UNSPECIFIED', 'UNSPECIFIED', 'UNSPECIFIED', ('UNSPECIFIED'), ('UNSPECIFIED'), ('UNSPECIFIED') ) ;
#62 = EDGE_CURVE ( 'NONE', #208, #208, #123, .T. ) ;
#63 = CARTESIAN_POINT ( 'NONE',  ( 7.055326917980805957E-16, 0.3499999999999995337, 0.2020725942163710820 ) ) ;
#64 = CC_DESIGN_APPROVAL ( #174, ( #83 ) ) ;
#65 = PERSON_AND_ORGANIZATION ( #61, #60 ) ;
#66 = EDGE_CURVE ( 'NONE', #76, #76, #205, .T. ) ;
#67 = DIRECTION ( 'NONE',  ( 0.0000000000000000000, -1.000000000000000000, 0.0000000000000000000 ) ) ;
#68 = EDGE_LOOP ( 'NONE', ( #204 ) ) ;
#69 = AXIS2_PLACEMENT_3D ( 'NONE', #100, #82, #16 ) ;
#70 = ORIENTED_EDGE ( 'NONE', *, *, #188, .T. ) ;
#71 = PLANE ( 'NONE',  #168 ) ;
#72 = CLOSED_SHELL ( 'NONE', ( #220, #41, #12 ) ) ;
#73 = CARTESIAN_POINT ( 'NONE',  ( 1.955229549752154679E-14, 0.3499999999999996447, 5.599999999999999645 ) ) ;
#74 = DIRECTION ( 'NONE',  ( 0.0000000000000000000, 1.000000000000000000, 0.0000000000000000000 ) ) ;
#75 = DIRECTION ( 'NONE',  ( -4.275831445896958607E-31, -1.000000000000000000, -1.224646799147353207E-16 ) ) ;
#76 = VERTEX_POINT ( 'NONE', #53 ) ;
#77 = AXIS2_PLACEMENT_3D ( 'NONE', #162, #127, #215 ) ;
#78 = CIRCLE ( 'NONE', #163, 0.3500000000000003109 ) ;
#79 = DATE_AND_TIME ( #179, #2 ) ;
#80 = PERSON_AND_ORGANIZATION ( #61, #60 ) ;
#81 = EDGE_LOOP ( 'NONE', ( #35 ) ) ;
#82 = DIRECTION ( 'NONE',  ( 3.491481338843133355E-15, -1.224646799147353207E-16, 1.000000000000000000 ) ) ;
#83 = PRODUCT_DEFINITION_FORMATION_WITH_SPECIFIED_SOURCE ( 'ANY', '', #189, .NOT_KNOWN. ) ;
#84 = DATE_AND_TIME ( #49, #135 ) ;
#85 = EDGE_LOOP ( 'NONE', ( #185 ) ) ;
#86 = ORIENTED_EDGE ( 'NONE', *, *, #178, .F. ) ;
#87 = DIRECTION ( 'NONE',  ( -3.491481338843133355E-15, 1.224646799147353207E-16, -1.000000000000000000 ) ) ;
#88 = DIRECTION ( 'NONE',  ( -3.491481338843133355E-15, 1.224646799147353207E-16, -1.000000000000000000 ) ) ;
#89 = FACE_OUTER_BOUND ( 'NONE', #131, .T. ) ;
#90 = AXIS2_PLACEMENT_3D ( 'NONE', #175, #19, #210 ) ;
#91 = DIRECTION ( 'NONE',  ( -5.502656983963538391E-31, -1.000000000000000000, -1.548860246407865555E-16 ) ) ;
#92 = CARTESIAN_POINT ( 'NONE',  ( 1.047444401652940007E-13, 0.3999999999999963585, 30.00000000000000000 ) ) ;
#93 = APPROVAL_STATUS ( 'not_yet_approved' ) ;
#94 =( LENGTH_UNIT ( ) NAMED_UNIT ( * ) SI_UNIT ( .MILLI., .METRE. ) );
#95 = COORDINATED_UNIVERSAL_TIME_OFFSET ( 1, 0, .AHEAD. ) ;
#96 = PRODUCT_RELATED_PRODUCT_CATEGORY ( 'detail', '', ( #189 ) ) ;
#97 =( NAMED_UNIT ( * ) PLANE_ANGLE_UNIT ( ) SI_UNIT ( $, .RADIAN. ) );
#98 = APPROVAL_STATUS ( 'not_yet_approved' ) ;
#99 = FACE_BOUND ( 'NONE', #130, .T. ) ;
#100 = CARTESIAN_POINT ( 'NONE',  ( 1.955229549752154679E-14, 2.624579619658242945E-33, 5.599999999999999645 ) ) ;
#101 = EDGE_LOOP ( 'NONE', ( #51 ) ) ;
#102 = ORIENTED_EDGE ( 'NONE', *, *, #158, .T. ) ;
#103 = VERTEX_POINT ( 'NONE', #171 ) ;
#104 = DIRECTION ( 'NONE',  ( 4.275831445896958607E-31, 1.000000000000000000, 1.224646799147353207E-16 ) ) ;
#105 = FACE_BOUND ( 'NONE', #182, .T. ) ;
#106 = CARTESIAN_POINT ( 'NONE',  ( 2.150685336005773494E-14, -7.543588686586859990E-16, 6.159807621135334976 ) ) ;
#107 = CALENDAR_DATE ( 2021, 8, 10 ) ;
#108 = COORDINATED_UNIVERSAL_TIME_OFFSET ( 1, 0, .AHEAD. ) ;
#109 = APPLICATION_PROTOCOL_DEFINITION ( 'international standard', 'config_control_design', 1994, #36 ) ;
#110 = APPROVAL_DATE_TIME ( #196, #174 ) ;
#111 = AXIS2_PLACEMENT_3D ( 'NONE', #40, #118, #25 ) ;
#112 = AXIS2_PLACEMENT_3D ( 'NONE', #1, #88, #104 ) ;
#113 = DATE_TIME_ROLE ( 'classification_date' ) ;
#114 = CLOSED_SHELL ( 'NONE', ( #216, #8, #197, #52, #218 ) ) ;
#115 = CC_DESIGN_SECURITY_CLASSIFICATION ( #18, ( #83 ) ) ;
#116 = PRODUCT_DEFINITION ( 'UNKNOWN', '', #83, #46 ) ;
#117 = ADVANCED_BREP_SHAPE_REPRESENTATION ( '178', ( #202, #199, #77 ), #144 ) ;
#118 = DIRECTION ( 'NONE',  ( -3.491481338843133355E-15, 1.224646799147353207E-16, -1.000000000000000000 ) ) ;
#119 = DIRECTION ( 'NONE',  ( -3.491481338843133355E-15, 1.224646799147353207E-16, -1.000000000000000000 ) ) ;
#120 = CC_DESIGN_APPROVAL ( #17, ( #116 ) ) ;
#121 = DIRECTION ( 'NONE',  ( 3.491481338843133355E-15, -1.224646799147353207E-16, 1.000000000000000000 ) ) ;
#122 = CARTESIAN_POINT ( 'NONE',  ( 1.955229549752154679E-14, 2.624579619658242945E-33, 5.599999999999999645 ) ) ;
#123 = CIRCLE ( 'NONE', #57, 0.4000000000000000222 ) ;
#124 = CARTESIAN_POINT ( 'NONE',  ( 1.047444401652940007E-13, 2.999519565323660135E-33, 30.00000000000000000 ) ) ;
#125 = AXIS2_PLACEMENT_3D ( 'NONE', #209, #156, #38 ) ;
#126 = APPROVAL_STATUS ( 'not_yet_approved' ) ;
#127 = DIRECTION ( 'NONE',  ( 0.0000000000000000000, 0.0000000000000000000, 1.000000000000000000 ) ) ;
#128 = COORDINATED_UNIVERSAL_TIME_OFFSET ( 1, 0, .AHEAD. ) ;
#129 = COORDINATED_UNIVERSAL_TIME_OFFSET ( 1, 0, .AHEAD. ) ;
#130 = EDGE_LOOP ( 'NONE', ( #86 ) ) ;
#131 = EDGE_LOOP ( 'NONE', ( #150 ) ) ;
#132 = CC_DESIGN_DATE_AND_TIME_ASSIGNMENT ( #47, #113, ( #18 ) ) ;
#133 = VERTEX_POINT ( 'NONE', #159 ) ;
#134 = VERTEX_POINT ( 'NONE', #63 ) ;
#135 = LOCAL_TIME ( 7, 53, 39.00000000000000000, #108 ) ;
#136 = APPROVAL_PERSON_ORGANIZATION ( #7, #17, #29 ) ;
#137 = DIRECTION ( 'NONE',  ( -3.491481338843133355E-15, 1.224646799147353207E-16, -1.000000000000000000 ) ) ;
#138 = FACE_OUTER_BOUND ( 'NONE', #68, .T. ) ;
#139 = CC_DESIGN_PERSON_AND_ORGANIZATION_ASSIGNMENT ( #10, #165, ( #83 ) ) ;
#140 = FACE_OUTER_BOUND ( 'NONE', #183, .T. ) ;
#141 = CC_DESIGN_PERSON_AND_ORGANIZATION_ASSIGNMENT ( #161, #45, ( #189 ) ) ;
#142 = APPLICATION_CONTEXT ( 'configuration controlled 3d designs of mechanical parts and assemblies' ) ;
#143 = DATE_AND_TIME ( #180, #157 ) ;
#144 =( GEOMETRIC_REPRESENTATION_CONTEXT ( 3 ) GLOBAL_UNCERTAINTY_ASSIGNED_CONTEXT ( ( #146 ) ) GLOBAL_UNIT_ASSIGNED_CONTEXT ( ( #94, #97, #5 ) ) REPRESENTATION_CONTEXT ( 'NONE', 'WORKASPACE' ) );
#145 = APPROVAL_ROLE ( '' ) ;
#146 = UNCERTAINTY_MEASURE_WITH_UNIT (LENGTH_MEASURE( 1.000000000000000082E-05 ), #94, 'distance_accuracy_value', 'NONE');
#147 = PERSON_AND_ORGANIZATION_ROLE ( 'classification_officer' ) ;
#148 = ORIENTED_EDGE ( 'NONE', *, *, #62, .T. ) ;
#149 = LOCAL_TIME ( 7, 53, 39.00000000000000000, #129 ) ;
#150 = ORIENTED_EDGE ( 'NONE', *, *, #62, .F. ) ;
#151 = AXIS2_PLACEMENT_3D ( 'NONE', #212, #154, #74 ) ;
#152 = EDGE_LOOP ( 'NONE', ( #70 ) ) ;
#153 = AXIS2_PLACEMENT_3D ( 'NONE', #106, #137, #222 ) ;
#154 = DIRECTION ( 'NONE',  ( -3.491481338843133355E-15, 1.224646799147353207E-16, -1.000000000000000000 ) ) ;
#155 = FACE_OUTER_BOUND ( 'NONE', #101, .T. ) ;
#156 = DIRECTION ( 'NONE',  ( -3.491481338843133355E-15, 1.224646799147353207E-16, -1.000000000000000000 ) ) ;
#157 = LOCAL_TIME ( 7, 53, 39.00000000000000000, #26 ) ;
#158 = EDGE_CURVE ( 'NONE', #103, #103, #184, .T. ) ;
#159 = CARTESIAN_POINT ( 'NONE',  ( 1.955229549752154679E-14, 0.3499999999999996447, 5.599999999999999645 ) ) ;
#160 = LOCAL_TIME ( 7, 53, 39.00000000000000000, #128 ) ;
#161 = PERSON_AND_ORGANIZATION ( #61, #60 ) ;
#162 = CARTESIAN_POINT ( 'NONE',  ( 0.0000000000000000000, 0.0000000000000000000, 0.0000000000000000000 ) ) ;
#163 = AXIS2_PLACEMENT_3D ( 'NONE', #39, #87, #176 ) ;
#164 = CIRCLE ( 'NONE', #125, 0.3500000000000003109 ) ;
#165 = PERSON_AND_ORGANIZATION_ROLE ( 'creator' ) ;
#166 = CARTESIAN_POINT ( 'NONE',  ( 2.150685336005773494E-14, -7.543588686586859990E-16, 6.159807621135334976 ) ) ;
#167 = CC_DESIGN_PERSON_AND_ORGANIZATION_ASSIGNMENT ( #80, #147, ( #18 ) ) ;
#168 = AXIS2_PLACEMENT_3D ( 'NONE', #124, #119, #187 ) ;
#169 = EDGE_LOOP ( 'NONE', ( #14 ) ) ;
#170 = DIRECTION ( 'NONE',  ( 0.0000000000000000000, 1.000000000000000000, 0.0000000000000000000 ) ) ;
#171 = CARTESIAN_POINT ( 'NONE',  ( 2.150685336005773494E-14, 0.4999999999999963363, 6.159807621135334976 ) ) ;
#172 = AXIS2_PLACEMENT_3D ( 'NONE', #166, #13, #67 ) ;
#173 = CARTESIAN_POINT ( 'NONE',  ( 7.055326917980803985E-16, -2.474675557024807679E-17, 0.2020725942163710265 ) ) ;
#174 = APPROVAL ( #126, 'UNSPECIFIED' ) ;
#175 = CARTESIAN_POINT ( 'NONE',  ( 0.0000000000000000000, 0.0000000000000000000, 0.0000000000000000000 ) ) ;
#176 = DIRECTION ( 'NONE',  ( 0.0000000000000000000, 1.000000000000000000, 0.0000000000000000000 ) ) ;
#177 = PERSON_AND_ORGANIZATION_ROLE ( 'design_supplier' ) ;
#178 = EDGE_CURVE ( 'NONE', #21, #21, #164, .T. ) ;
#179 = CALENDAR_DATE ( 2021, 8, 10 ) ;
#180 = CALENDAR_DATE ( 2021, 8, 10 ) ;
#181 = CC_DESIGN_PERSON_AND_ORGANIZATION_ASSIGNMENT ( #31, #213, ( #116 ) ) ;
#182 = EDGE_LOOP ( 'NONE', ( #148 ) ) ;
#183 = EDGE_LOOP ( 'NONE', ( #206 ) ) ;
#184 = CIRCLE ( 'NONE', #153, 0.4999999999999970579 ) ;
#185 = ORIENTED_EDGE ( 'NONE', *, *, #34, .F. ) ;
#186 = APPROVAL_DATE_TIME ( #84, #200 ) ;
#187 = DIRECTION ( 'NONE',  ( 4.275831445896958607E-31, 1.000000000000000000, 1.224646799147353207E-16 ) ) ;
#188 = EDGE_CURVE ( 'NONE', #134, #134, #195, .T. ) ;
#189 = PRODUCT ( '178', '178', '', ( #194 ) ) ;
#190 = DIRECTION ( 'NONE',  ( -3.491481338843133355E-15, 1.224646799147353207E-16, -1.000000000000000000 ) ) ;
#191 = FACE_OUTER_BOUND ( 'NONE', #81, .T. ) ;
#192 = DATE_TIME_ROLE ( 'creation_date' ) ;
#193 = CONICAL_SURFACE ( 'NONE', #172, 0.4999999999999970579, 0.2617993877991425800 ) ;
#194 = MECHANICAL_CONTEXT ( 'NONE', #142, 'mechanical' ) ;
#195 = CIRCLE ( 'NONE', #6, 0.3499999999999995337 ) ;
#196 = DATE_AND_TIME ( #107, #160 ) ;
#197 = ADVANCED_FACE ( 'NONE', ( #155, #22 ), #58, .T. ) ;
#198 = CALENDAR_DATE ( 2021, 8, 10 ) ;
#199 = MANIFOLD_SOLID_BREP ( 'Corps-Déplacer/Copier1[2]', #72 ) ;
#200 = APPROVAL ( #93, 'UNSPECIFIED' ) ;
#201 = FACE_OUTER_BOUND ( 'NONE', #85, .T. ) ;
#202 = MANIFOLD_SOLID_BREP ( 'Corps-Déplacer/Copier1[1]', #114 ) ;
#203 = SHAPE_DEFINITION_REPRESENTATION ( #24, #117 ) ;
#204 = ORIENTED_EDGE ( 'NONE', *, *, #188, .F. ) ;
#205 = CIRCLE ( 'NONE', #111, 0.5000000000000000000 ) ;
#206 = ORIENTED_EDGE ( 'NONE', *, *, #34, .T. ) ;
#207 = ORIENTED_EDGE ( 'NONE', *, *, #178, .T. ) ;
#208 = VERTEX_POINT ( 'NONE', #92 ) ;
#209 = CARTESIAN_POINT ( 'NONE',  ( 1.955229549752154679E-14, -6.858022075225177566E-16, 5.599999999999999645 ) ) ;
#210 = DIRECTION ( 'NONE',  ( 4.275831445896959482E-31, 1.000000000000000000, 1.224646799147353207E-16 ) ) ;
#211 = CARTESIAN_POINT ( 'NONE',  ( 1.047444401652940007E-13, -3.673940397442059178E-15, 30.00000000000000000 ) ) ;
#212 = CARTESIAN_POINT ( 'NONE',  ( 1.047444401652940007E-13, -3.673940397442059178E-15, 30.00000000000000000 ) ) ;
#213 = PERSON_AND_ORGANIZATION_ROLE ( 'creator' ) ;
#214 = PERSON_AND_ORGANIZATION ( #61, #60 ) ;
#215 = DIRECTION ( 'NONE',  ( 1.000000000000000000, 0.0000000000000000000, 0.0000000000000000000 ) ) ;
#216 = ADVANCED_FACE ( 'NONE', ( #3 ), #56, .F. ) ;
#217 = APPROVAL_PERSON_ORGANIZATION ( #214, #174, #145 ) ;
#218 = ADVANCED_FACE ( 'NONE', ( #89 ), #71, .F. ) ;
#219 = EDGE_LOOP ( 'NONE', ( #102 ) ) ;
#220 = ADVANCED_FACE ( 'NONE', ( #42 ), #15, .T. ) ;
#221 = EDGE_LOOP ( 'NONE', ( #207 ) ) ;
#222 = DIRECTION ( 'NONE',  ( 0.0000000000000000000, 1.000000000000000000, 0.0000000000000000000 ) ) ;
#223 = CARTESIAN_POINT ( 'NONE',  ( 7.055326917980803985E-16, -2.474675557024807679E-17, 0.2020725942163710265 ) ) ;
ENDSEC;
END-ISO-10303-21;
