ISO-10303-21;
HEADER;
FILE_DESCRIPTION (( 'STEP AP203' ),
    '1' );
FILE_NAME ('17745.step',
    '2021-12-06T12:58:26',
    ( '' ),
    ( '' ),
    'SwSTEP 2.0',
    'SolidWorks 2019',
    '' );
FILE_SCHEMA (( 'CONFIG_CONTROL_DESIGN' ));
ENDSEC;

DATA;
#1 = PLANE ( 'NONE',  #11 ) ;
#2 = PERSON_AND_ORGANIZATION ( #154, #75 ) ;
#3 = EDGE_LOOP ( 'NONE', ( #138 ) ) ;
#4 = APPROVAL_DATE_TIME ( #143, #52 ) ;
#5 = VERTEX_POINT ( 'NONE', #23 ) ;
#6 = CC_DESIGN_PERSON_AND_ORGANIZATION_ASSIGNMENT ( #96, #33, ( #91 ) ) ;
#7 = CALENDAR_DATE ( 2021, 6, 12 ) ;
#8 = CIRCLE ( 'NONE', #87, 40.00000000000000711 ) ;
#9 = FACE_OUTER_BOUND ( 'NONE', #106, .T. ) ;
#10 = SECURITY_CLASSIFICATION ( '', '', #157 ) ;
#11 = AXIS2_PLACEMENT_3D ( 'NONE', #26, #103, #78 ) ;
#12 = PRODUCT_DEFINITION_SHAPE ( 'NONE', 'NONE',  #139 ) ;
#13 = MANIFOLD_SOLID_BREP ( 'Corps-Déplacer/Copier1', #83 ) ;
#14 = CARTESIAN_POINT ( 'NONE',  ( -1.453782691604966171E-29, 4.334305771892768815E-31, -4.163799117101001348E-15 ) ) ;
#15 = PRODUCT_DEFINITION_FORMATION_WITH_SPECIFIED_SOURCE ( 'ANY', '', #91, .NOT_KNOWN. ) ;
#16 = DIRECTION ( 'NONE',  ( 3.634456729012414115E-31, 1.000000000000000000, 1.040949779275250263E-16 ) ) ;
#17 = LOCAL_TIME ( 13, 58, 26.00000000000000000, #56 ) ;
#18 = APPROVAL_STATUS ( 'not_yet_approved' ) ;
#19 = DIRECTION ( 'NONE',  ( 3.491481338843133355E-15, -1.040949779275250140E-16, 1.000000000000000000 ) ) ;
#20 = PERSON_AND_ORGANIZATION ( #154, #75 ) ;
#21 = FACE_OUTER_BOUND ( 'NONE', #27, .T. ) ;
#22 = LOCAL_TIME ( 13, 58, 26.00000000000000000, #118 ) ;
#23 = CARTESIAN_POINT ( 'NONE',  ( 0.0000000000000000000, 40.00000000000000711, 0.0000000000000000000 ) ) ;
#24 = CC_DESIGN_DATE_AND_TIME_ASSIGNMENT ( #135, #42, ( #10 ) ) ;
#25 = PERSON_AND_ORGANIZATION_ROLE ( 'design_supplier' ) ;
#26 = CARTESIAN_POINT ( 'NONE',  ( -5.269962257068001671E-30, 11.00000000000000000, -1.509377179949112949E-15 ) ) ;
#27 = EDGE_LOOP ( 'NONE', ( #70 ) ) ;
#28 = CC_DESIGN_SECURITY_CLASSIFICATION ( #10, ( #15 ) ) ;
#29 = EDGE_LOOP ( 'NONE', ( #163 ) ) ;
#30 = AXIS2_PLACEMENT_3D ( 'NONE', #158, #41, #79 ) ;
#31 = ORIENTED_EDGE ( 'NONE', *, *, #113, .T. ) ;
#32 = APPLICATION_PROTOCOL_DEFINITION ( 'international standard', 'config_control_design', 1994, #67 ) ;
#33 = PERSON_AND_ORGANIZATION_ROLE ( 'design_owner' ) ;
#34 = ADVANCED_BREP_SHAPE_REPRESENTATION ( '17745', ( #13, #125 ), #109 ) ;
#35 = DIRECTION ( 'NONE',  ( -3.634456729012414553E-31, -1.000000000000000000, -1.040949779275250140E-16 ) ) ;
#36 = DIRECTION ( 'NONE',  ( 1.000000000000000000, 0.0000000000000000000, 0.0000000000000000000 ) ) ;
#37 = VERTEX_POINT ( 'NONE', #49 ) ;
#38 = ADVANCED_FACE ( 'NONE', ( #55, #100 ), #136, .F. ) ;
#39 = DESIGN_CONTEXT ( 'detailed design', #67, 'design' ) ;
#40 = APPROVAL_ROLE ( '' ) ;
#41 = DIRECTION ( 'NONE',  ( -3.491481338843133355E-15, 1.040949779275250140E-16, -1.000000000000000000 ) ) ;
#42 = DATE_TIME_ROLE ( 'classification_date' ) ;
#43 = CARTESIAN_POINT ( 'NONE',  ( -3.997902401913656271E-30, 1.191934087270511140E-31, -1.145044757202775252E-15 ) ) ;
#44 = ORIENTED_EDGE ( 'NONE', *, *, #148, .T. ) ;
#45 = EDGE_LOOP ( 'NONE', ( #31 ) ) ;
#46 = ADVANCED_FACE ( 'NONE', ( #149, #150 ), #1, .T. ) ;
#47 = MECHANICAL_CONTEXT ( 'NONE', #147, 'mechanical' ) ;
#48 = CARTESIAN_POINT ( 'NONE',  ( 6.982962677686265133E-15, 40.00000000000000711, 2.000000000000000000 ) ) ;
#49 = CARTESIAN_POINT ( 'NONE',  ( -6.842277657836020854E-46, 11.00000000000000000, 0.0000000000000000000 ) ) ;
#50 = PERSON_AND_ORGANIZATION ( #154, #75 ) ;
#51 = APPROVAL_PERSON_ORGANIZATION ( #50, #116, #40 ) ;
#52 = APPROVAL ( #18, 'UNSPECIFIED' ) ;
#53 = AXIS2_PLACEMENT_3D ( 'NONE', #76, #60, #86 ) ;
#54 = APPROVAL_STATUS ( 'not_yet_approved' ) ;
#55 = FACE_OUTER_BOUND ( 'NONE', #45, .T. ) ;
#56 = COORDINATED_UNIVERSAL_TIME_OFFSET ( 1, 0, .AHEAD. ) ;
#57 = AXIS2_PLACEMENT_3D ( 'NONE', #43, #137, #16 ) ;
#58 = DIRECTION ( 'NONE',  ( 4.202028969572149519E-31, 1.000000000000000000, 1.182766006347822616E-16 ) ) ;
#59 = PLANE ( 'NONE',  #69 ) ;
#60 = DIRECTION ( 'NONE',  ( -3.491481338843133355E-15, 1.040949779275250140E-16, -1.000000000000000000 ) ) ;
#61 = CARTESIAN_POINT ( 'NONE',  ( 6.982962677686266711E-15, 11.00000000000000355, 2.000000000000000000 ) ) ;
#62 = PRODUCT_RELATED_PRODUCT_CATEGORY ( 'detail', '', ( #91 ) ) ;
#63 = FACE_BOUND ( 'NONE', #153, .T. ) ;
#64 = APPROVAL_PERSON_ORGANIZATION ( #82, #52, #73 ) ;
#65 = PERSON_AND_ORGANIZATION_ROLE ( 'creator' ) ;
#66 = DATE_AND_TIME ( #120, #99 ) ;
#67 = APPLICATION_CONTEXT ( 'configuration controlled 3d designs of mechanical parts and assemblies' ) ;
#68 = DIRECTION ( 'NONE',  ( -3.491481338843133355E-15, 1.040949779275250140E-16, -1.000000000000000000 ) ) ;
#69 = AXIS2_PLACEMENT_3D ( 'NONE', #111, #19, #35 ) ;
#70 = ORIENTED_EDGE ( 'NONE', *, *, #148, .F. ) ;
#71 = CARTESIAN_POINT ( 'NONE',  ( 6.982962677686261977E-15, -2.081899558550498801E-16, 1.999999999999998668 ) ) ;
#72 = COORDINATED_UNIVERSAL_TIME_OFFSET ( 1, 0, .AHEAD. ) ;
#73 = APPROVAL_ROLE ( '' ) ;
#74 = PERSON_AND_ORGANIZATION_ROLE ( 'creator' ) ;
#75 = ORGANIZATION ( 'UNSPECIFIED', 'UNSPECIFIED', '' ) ;
#76 = CARTESIAN_POINT ( 'NONE',  ( 0.0000000000000000000, 0.0000000000000000000, 0.0000000000000000000 ) ) ;
#77 = APPROVAL_ROLE ( '' ) ;
#78 = DIRECTION ( 'NONE',  ( 3.634456729012414553E-31, 1.000000000000000000, 1.040949779275250140E-16 ) ) ;
#79 = DIRECTION ( 'NONE',  ( 3.634456729012414115E-31, 1.000000000000000000, 1.040949779275250017E-16 ) ) ;
#80 = CC_DESIGN_APPROVAL ( #52, ( #139 ) ) ;
#81 = ORIENTED_EDGE ( 'NONE', *, *, #146, .F. ) ;
#82 = PERSON_AND_ORGANIZATION ( #154, #75 ) ;
#83 = CLOSED_SHELL ( 'NONE', ( #46, #151, #168, #38 ) ) ;
#84 = CALENDAR_DATE ( 2021, 6, 12 ) ;
#85 = CIRCLE ( 'NONE', #57, 11.00000000000000000 ) ;
#86 = DIRECTION ( 'NONE',  ( 3.634456729012414991E-31, 1.000000000000000000, 1.040949779275250140E-16 ) ) ;
#87 = AXIS2_PLACEMENT_3D ( 'NONE', #131, #155, #141 ) ;
#88 = VERTEX_POINT ( 'NONE', #48 ) ;
#89 = PERSON_AND_ORGANIZATION_ROLE ( 'classification_officer' ) ;
#90 = PERSON_AND_ORGANIZATION ( #154, #75 ) ;
#91 = PRODUCT ( '17745', '17745', '', ( #47 ) ) ;
#92 = LOCAL_TIME ( 13, 58, 26.00000000000000000, #72 ) ;
#93 = CALENDAR_DATE ( 2021, 6, 12 ) ;
#94 = ORIENTED_EDGE ( 'NONE', *, *, #107, .T. ) ;
#95 = UNCERTAINTY_MEASURE_WITH_UNIT (LENGTH_MEASURE( 1.000000000000000082E-05 ), #166, 'distance_accuracy_value', 'NONE');
#96 = PERSON_AND_ORGANIZATION ( #154, #75 ) ;
#97 = CYLINDRICAL_SURFACE ( 'NONE', #53, 40.00000000000000711 ) ;
#98 = CALENDAR_DATE ( 2021, 6, 12 ) ;
#99 = LOCAL_TIME ( 13, 58, 26.00000000000000000, #112 ) ;
#100 = FACE_OUTER_BOUND ( 'NONE', #152, .T. ) ;
#101 = CC_DESIGN_DATE_AND_TIME_ASSIGNMENT ( #110, #165, ( #139 ) ) ;
#102 = PERSON_AND_ORGANIZATION ( #154, #75 ) ;
#103 = DIRECTION ( 'NONE',  ( -3.491481338843133355E-15, 1.040949779275250140E-16, -1.000000000000000000 ) ) ;
#104 = DATE_AND_TIME ( #93, #17 ) ;
#105 = DIRECTION ( 'NONE',  ( 3.634456729012414991E-31, 1.000000000000000000, 1.040949779275250140E-16 ) ) ;
#106 = EDGE_LOOP ( 'NONE', ( #44 ) ) ;
#107 = EDGE_CURVE ( 'NONE', #5, #5, #133, .T. ) ;
#108 =( NAMED_UNIT ( * ) SI_UNIT ( $, .STERADIAN. ) SOLID_ANGLE_UNIT ( ) );
#109 =( GEOMETRIC_REPRESENTATION_CONTEXT ( 3 ) GLOBAL_UNCERTAINTY_ASSIGNED_CONTEXT ( ( #95 ) ) GLOBAL_UNIT_ASSIGNED_CONTEXT ( ( #166, #156, #108 ) ) REPRESENTATION_CONTEXT ( 'NONE', 'WORKASPACE' ) );
#110 = DATE_AND_TIME ( #7, #145 ) ;
#111 = CARTESIAN_POINT ( 'NONE',  ( 6.982962677686261977E-15, 11.00000000000000355, 1.999999999999998668 ) ) ;
#112 = COORDINATED_UNIVERSAL_TIME_OFFSET ( 1, 0, .AHEAD. ) ;
#113 = EDGE_CURVE ( 'NONE', #37, #37, #85, .T. ) ;
#114 = CC_DESIGN_APPROVAL ( #116, ( #10 ) ) ;
#115 = PERSON_AND_ORGANIZATION ( #154, #75 ) ;
#116 = APPROVAL ( #167, 'UNSPECIFIED' ) ;
#117 = CC_DESIGN_PERSON_AND_ORGANIZATION_ASSIGNMENT ( #20, #74, ( #139 ) ) ;
#118 = COORDINATED_UNIVERSAL_TIME_OFFSET ( 1, 0, .AHEAD. ) ;
#119 = CIRCLE ( 'NONE', #130, 11.00000000000000355 ) ;
#120 = CALENDAR_DATE ( 2021, 6, 12 ) ;
#121 = EDGE_LOOP ( 'NONE', ( #94 ) ) ;
#122 = DIRECTION ( 'NONE',  ( -3.491481338843133355E-15, 1.040949779275250140E-16, -1.000000000000000000 ) ) ;
#123 = CC_DESIGN_PERSON_AND_ORGANIZATION_ASSIGNMENT ( #102, #89, ( #10 ) ) ;
#124 = DIRECTION ( 'NONE',  ( 0.0000000000000000000, 0.0000000000000000000, 1.000000000000000000 ) ) ;
#125 = AXIS2_PLACEMENT_3D ( 'NONE', #144, #124, #36 ) ;
#126 = FACE_OUTER_BOUND ( 'NONE', #29, .T. ) ;
#127 = CC_DESIGN_PERSON_AND_ORGANIZATION_ASSIGNMENT ( #90, #65, ( #15 ) ) ;
#128 = APPLICATION_PROTOCOL_DEFINITION ( 'international standard', 'config_control_design', 1994, #147 ) ;
#129 = COORDINATED_UNIVERSAL_TIME_OFFSET ( 1, 0, .AHEAD. ) ;
#130 = AXIS2_PLACEMENT_3D ( 'NONE', #71, #122, #58 ) ;
#131 = CARTESIAN_POINT ( 'NONE',  ( 6.982962677686251722E-15, -2.081899558550495842E-16, 1.999999999999995781 ) ) ;
#132 = SHAPE_DEFINITION_REPRESENTATION ( #12, #34 ) ;
#133 = CIRCLE ( 'NONE', #142, 40.00000000000000711 ) ;
#134 = APPROVAL_DATE_TIME ( #66, #169 ) ;
#135 = DATE_AND_TIME ( #98, #22 ) ;
#136 = CYLINDRICAL_SURFACE ( 'NONE', #30, 11.00000000000000178 ) ;
#137 = DIRECTION ( 'NONE',  ( -3.491481338843133355E-15, 1.040949779275250140E-16, -1.000000000000000000 ) ) ;
#138 = ORIENTED_EDGE ( 'NONE', *, *, #113, .F. ) ;
#139 = PRODUCT_DEFINITION ( 'UNKNOWN', '', #15, #39 ) ;
#140 = VERTEX_POINT ( 'NONE', #61 ) ;
#141 = DIRECTION ( 'NONE',  ( 3.466673899897024098E-31, 1.000000000000000000, 1.084202172485504187E-16 ) ) ;
#142 = AXIS2_PLACEMENT_3D ( 'NONE', #14, #68, #105 ) ;
#143 = DATE_AND_TIME ( #84, #92 ) ;
#144 = CARTESIAN_POINT ( 'NONE',  ( 0.0000000000000000000, 0.0000000000000000000, 0.0000000000000000000 ) ) ;
#145 = LOCAL_TIME ( 13, 58, 26.00000000000000000, #129 ) ;
#146 = EDGE_CURVE ( 'NONE', #140, #140, #119, .T. ) ;
#147 = APPLICATION_CONTEXT ( 'configuration controlled 3d designs of mechanical parts and assemblies' ) ;
#148 = EDGE_CURVE ( 'NONE', #88, #88, #8, .T. ) ;
#149 = FACE_OUTER_BOUND ( 'NONE', #121, .T. ) ;
#150 = FACE_BOUND ( 'NONE', #3, .T. ) ;
#151 = ADVANCED_FACE ( 'NONE', ( #9, #126 ), #97, .T. ) ;
#152 = EDGE_LOOP ( 'NONE', ( #81 ) ) ;
#153 = EDGE_LOOP ( 'NONE', ( #162 ) ) ;
#154 = PERSON ( 'UNSPECIFIED', 'UNSPECIFIED', 'UNSPECIFIED', ('UNSPECIFIED'), ('UNSPECIFIED'), ('UNSPECIFIED') ) ;
#155 = DIRECTION ( 'NONE',  ( -3.491481338843133355E-15, 1.040949779275250140E-16, -1.000000000000000000 ) ) ;
#156 =( NAMED_UNIT ( * ) PLANE_ANGLE_UNIT ( ) SI_UNIT ( $, .RADIAN. ) );
#157 = SECURITY_CLASSIFICATION_LEVEL ( 'unclassified' ) ;
#158 = CARTESIAN_POINT ( 'NONE',  ( 0.0000000000000000000, 0.0000000000000000000, 0.0000000000000000000 ) ) ;
#159 = APPROVAL_DATE_TIME ( #104, #116 ) ;
#160 = APPROVAL_PERSON_ORGANIZATION ( #115, #169, #77 ) ;
#161 = CC_DESIGN_PERSON_AND_ORGANIZATION_ASSIGNMENT ( #2, #25, ( #15 ) ) ;
#162 = ORIENTED_EDGE ( 'NONE', *, *, #146, .T. ) ;
#163 = ORIENTED_EDGE ( 'NONE', *, *, #107, .F. ) ;
#164 = CC_DESIGN_APPROVAL ( #169, ( #15 ) ) ;
#165 = DATE_TIME_ROLE ( 'creation_date' ) ;
#166 =( LENGTH_UNIT ( ) NAMED_UNIT ( * ) SI_UNIT ( .MILLI., .METRE. ) );
#167 = APPROVAL_STATUS ( 'not_yet_approved' ) ;
#168 = ADVANCED_FACE ( 'NONE', ( #63, #21 ), #59, .T. ) ;
#169 = APPROVAL ( #54, 'UNSPECIFIED' ) ;
ENDSEC;
END-ISO-10303-21;
