ISO-10303-21;
HEADER;
FILE_DESCRIPTION (( 'STEP AP203' ),
    '1' );
FILE_NAME ('176.step',
    '2021-10-08T05:53:38',
    ( '' ),
    ( '' ),
    'SwSTEP 2.0',
    'SolidWorks 2019',
    '' );
FILE_SCHEMA (( 'CONFIG_CONTROL_DESIGN' ));
ENDSEC;

DATA;
#1 = ORIENTED_EDGE ( 'NONE', *, *, #35, .F. ) ;
#2 = ADVANCED_FACE ( 'NONE', ( #42, #20 ), #21, .T. ) ;
#3 = ORIENTED_EDGE ( 'NONE', *, *, #181, .T. ) ;
#4 = AXIS2_PLACEMENT_3D ( 'NONE', #140, #209, #63 ) ;
#5 = DIRECTION ( 'NONE',  ( 4.275831445896958607E-31, 1.000000000000000000, 1.224646799147353207E-16 ) ) ;
#6 = CC_DESIGN_PERSON_AND_ORGANIZATION_ASSIGNMENT ( #177, #147, ( #13 ) ) ;
#7 = CYLINDRICAL_SURFACE ( 'NONE', #62, 0.2999999999999992117 ) ;
#8 = CIRCLE ( 'NONE', #60, 0.5000000000000000000 ) ;
#9 = FACE_BOUND ( 'NONE', #152, .T. ) ;
#10 = DIRECTION ( 'NONE',  ( -3.491481338843133355E-15, 1.224646799147353207E-16, -1.000000000000000000 ) ) ;
#11 = DIRECTION ( 'NONE',  ( -3.491481338843133355E-15, 1.224646799147353207E-16, -1.000000000000000000 ) ) ;
#12 = DATE_TIME_ROLE ( 'creation_date' ) ;
#13 = PRODUCT_DEFINITION ( 'UNKNOWN', '', #112, #29 ) ;
#14 = CALENDAR_DATE ( 2021, 8, 10 ) ;
#15 = PERSON_AND_ORGANIZATION_ROLE ( 'classification_officer' ) ;
#16 = CC_DESIGN_PERSON_AND_ORGANIZATION_ASSIGNMENT ( #99, #219, ( #112 ) ) ;
#17 = EDGE_LOOP ( 'NONE', ( #57 ) ) ;
#18 = ORIENTED_EDGE ( 'NONE', *, *, #95, .T. ) ;
#19 = PRODUCT_RELATED_PRODUCT_CATEGORY ( 'detail', '', ( #223 ) ) ;
#20 = FACE_OUTER_BOUND ( 'NONE', #17, .T. ) ;
#21 = CYLINDRICAL_SURFACE ( 'NONE', #22, 0.4999999999999985012 ) ;
#22 = AXIS2_PLACEMENT_3D ( 'NONE', #88, #153, #89 ) ;
#23 = CARTESIAN_POINT ( 'NONE',  ( 1.043952920314096810E-13, 0.4999999999999963363, 29.89999999999999858 ) ) ;
#24 = CC_DESIGN_PERSON_AND_ORGANIZATION_ASSIGNMENT ( #216, #148, ( #112 ) ) ;
#25 = PLANE ( 'NONE',  #217 ) ;
#26 = DIRECTION ( 'NONE',  ( 0.0000000000000000000, 1.000000000000000000, 0.0000000000000000000 ) ) ;
#27 = DIRECTION ( 'NONE',  ( -3.491481338843133355E-15, 1.224646799147353207E-16, -1.000000000000000000 ) ) ;
#28 = VERTEX_POINT ( 'NONE', #128 ) ;
#29 = DESIGN_CONTEXT ( 'detailed design', #87, 'design' ) ;
#30 = DIRECTION ( 'NONE',  ( 1.000000000000000000, 0.0000000000000000000, 0.0000000000000000000 ) ) ;
#31 = AXIS2_PLACEMENT_3D ( 'NONE', #173, #158, #26 ) ;
#32 = APPROVAL_ROLE ( '' ) ;
#33 = LOCAL_TIME ( 7, 53, 38.00000000000000000, #145 ) ;
#34 = CARTESIAN_POINT ( 'NONE',  ( 1.831774317484237410E-14, 0.4999999999999962252, 5.246410161513786363 ) ) ;
#35 = EDGE_CURVE ( 'NONE', #124, #124, #83, .T. ) ;
#36 = APPROVAL_DATE_TIME ( #198, #45 ) ;
#37 = LOCAL_TIME ( 7, 53, 38.00000000000000000, #201 ) ;
#38 = EDGE_LOOP ( 'NONE', ( #18 ) ) ;
#39 = APPROVAL_ROLE ( '' ) ;
#40 = APPROVAL_PERSON_ORGANIZATION ( #52, #45, #32 ) ;
#41 = SHAPE_DEFINITION_REPRESENTATION ( #200, #208 ) ;
#42 = FACE_OUTER_BOUND ( 'NONE', #184, .T. ) ;
#43 = APPROVAL_DATE_TIME ( #102, #137 ) ;
#44 = ORIENTED_EDGE ( 'NONE', *, *, #35, .T. ) ;
#45 = APPROVAL ( #81, 'UNSPECIFIED' ) ;
#46 = DIRECTION ( 'NONE',  ( 3.491481338843133355E-15, -1.224646799147353207E-16, 1.000000000000000000 ) ) ;
#47 = DIRECTION ( 'NONE',  ( -3.491481338843133355E-15, 1.224646799147353207E-16, -1.000000000000000000 ) ) ;
#48 = CARTESIAN_POINT ( 'NONE',  ( 1.047444401652940007E-13, -3.673940397442059178E-15, 30.00000000000000000 ) ) ;
#49 = LOCAL_TIME ( 7, 53, 38.00000000000000000, #164 ) ;
#50 = DIRECTION ( 'NONE',  ( -4.275831445896958607E-31, -1.000000000000000000, -1.224646799147353207E-16 ) ) ;
#51 = DIRECTION ( 'NONE',  ( 3.491481338843133355E-15, -1.224646799147353207E-16, 1.000000000000000000 ) ) ;
#52 = PERSON_AND_ORGANIZATION ( #205, #197 ) ;
#53 = DATE_AND_TIME ( #163, #49 ) ;
#54 = VERTEX_POINT ( 'NONE', #165 ) ;
#55 = PERSON_AND_ORGANIZATION ( #205, #197 ) ;
#56 = APPROVAL_STATUS ( 'not_yet_approved' ) ;
#57 = ORIENTED_EDGE ( 'NONE', *, *, #162, .T. ) ;
#58 = ADVANCED_FACE ( 'NONE', ( #125 ), #107, .T. ) ;
#59 = EDGE_LOOP ( 'NONE', ( #44 ) ) ;
#60 = AXIS2_PLACEMENT_3D ( 'NONE', #156, #109, #61 ) ;
#61 = DIRECTION ( 'NONE',  ( 0.0000000000000000000, 1.000000000000000000, 0.0000000000000000000 ) ) ;
#62 = AXIS2_PLACEMENT_3D ( 'NONE', #142, #11, #174 ) ;
#63 = DIRECTION ( 'NONE',  ( 0.0000000000000000000, 1.000000000000000000, 0.0000000000000000000 ) ) ;
#64 = FACE_OUTER_BOUND ( 'NONE', #206, .T. ) ;
#65 = FACE_OUTER_BOUND ( 'NONE', #59, .T. ) ;
#66 = CARTESIAN_POINT ( 'NONE',  ( 1.047444401652940007E-13, 0.3999999999999963585, 30.00000000000000000 ) ) ;
#67 = PERSON_AND_ORGANIZATION ( #205, #197 ) ;
#68 = CC_DESIGN_APPROVAL ( #137, ( #106 ) ) ;
#69 = APPLICATION_PROTOCOL_DEFINITION ( 'international standard', 'config_control_design', 1994, #104 ) ;
#70 = PERSON_AND_ORGANIZATION ( #205, #197 ) ;
#71 = CALENDAR_DATE ( 2021, 8, 10 ) ;
#72 = ORIENTED_EDGE ( 'NONE', *, *, #154, .T. ) ;
#73 = ORIENTED_EDGE ( 'NONE', *, *, #181, .F. ) ;
#74 = CIRCLE ( 'NONE', #191, 0.4999999999999968914 ) ;
#75 = CARTESIAN_POINT ( 'NONE',  ( 6.047423072554960335E-16, -2.121150477449829915E-17, 0.1732050807568890627 ) ) ;
#76 = DIRECTION ( 'NONE',  ( 0.0000000000000000000, 1.000000000000000000, 0.0000000000000000000 ) ) ;
#77 = AXIS2_PLACEMENT_3D ( 'NONE', #134, #195, #30 ) ;
#78 = DIRECTION ( 'NONE',  ( 0.0000000000000000000, -1.000000000000000000, 0.0000000000000000000 ) ) ;
#79 = FACE_OUTER_BOUND ( 'NONE', #151, .T. ) ;
#80 = CARTESIAN_POINT ( 'NONE',  ( 1.047444401652940007E-13, 2.999519565323660135E-33, 30.00000000000000000 ) ) ;
#81 = APPROVAL_STATUS ( 'not_yet_approved' ) ;
#82 = APPROVAL_ROLE ( '' ) ;
#83 = CIRCLE ( 'NONE', #222, 0.2999999999999988232 ) ;
#84 = DATE_TIME_ROLE ( 'classification_date' ) ;
#85 = AXIS2_PLACEMENT_3D ( 'NONE', #80, #94, #5 ) ;
#86 = CC_DESIGN_SECURITY_CLASSIFICATION ( #106, ( #112 ) ) ;
#87 = APPLICATION_CONTEXT ( 'configuration controlled 3d designs of mechanical parts and assemblies' ) ;
#88 = CARTESIAN_POINT ( 'NONE',  ( 0.0000000000000000000, 0.0000000000000000000, 0.0000000000000000000 ) ) ;
#89 = DIRECTION ( 'NONE',  ( 4.275831445896959482E-31, 1.000000000000000000, 1.224646799147353207E-16 ) ) ;
#90 = AXIS2_PLACEMENT_3D ( 'NONE', #110, #207, #78 ) ;
#91 = DIRECTION ( 'NONE',  ( -4.275831445896958607E-31, -1.000000000000000000, -1.224646799147353207E-16 ) ) ;
#92 = FACE_OUTER_BOUND ( 'NONE', #220, .T. ) ;
#93 = ADVANCED_FACE ( 'NONE', ( #79, #194 ), #171, .T. ) ;
#94 = DIRECTION ( 'NONE',  ( -3.491481338843133355E-15, 1.224646799147353207E-16, -1.000000000000000000 ) ) ;
#95 = EDGE_CURVE ( 'NONE', #189, #189, #111, .T. ) ;
#96 = DIRECTION ( 'NONE',  ( 0.0000000000000000000, 1.000000000000000000, 0.0000000000000000000 ) ) ;
#97 = DATE_AND_TIME ( #176, #37 ) ;
#98 = CLOSED_SHELL ( 'NONE', ( #143, #130, #2, #93, #160 ) ) ;
#99 = PERSON_AND_ORGANIZATION ( #205, #197 ) ;
#100 = CIRCLE ( 'NONE', #4, 0.2999999999999996003 ) ;
#101 = PERSON_AND_ORGANIZATION ( #205, #197 ) ;
#102 = DATE_AND_TIME ( #117, #168 ) ;
#103 = EDGE_LOOP ( 'NONE', ( #119 ) ) ;
#104 = APPLICATION_CONTEXT ( 'configuration controlled 3d designs of mechanical parts and assemblies' ) ;
#105 =( GEOMETRIC_REPRESENTATION_CONTEXT ( 3 ) GLOBAL_UNCERTAINTY_ASSIGNED_CONTEXT ( ( #214 ) ) GLOBAL_UNIT_ASSIGNED_CONTEXT ( ( #179, #116, #196 ) ) REPRESENTATION_CONTEXT ( 'NONE', 'WORKASPACE' ) );
#106 = SECURITY_CLASSIFICATION ( '', '', #129 ) ;
#107 = PLANE ( 'NONE',  #122 ) ;
#108 = CC_DESIGN_DATE_AND_TIME_ASSIGNMENT ( #97, #12, ( #13 ) ) ;
#109 = DIRECTION ( 'NONE',  ( -3.491481338843133355E-15, 1.224646799147353207E-16, -1.000000000000000000 ) ) ;
#110 = CARTESIAN_POINT ( 'NONE',  ( 1.831774317484237410E-14, -6.424999411312007015E-16, 5.246410161513786363 ) ) ;
#111 = CIRCLE ( 'NONE', #204, 0.4000000000000000222 ) ;
#112 = PRODUCT_DEFINITION_FORMATION_WITH_SPECIFIED_SOURCE ( 'ANY', '', #223, .NOT_KNOWN. ) ;
#113 = CARTESIAN_POINT ( 'NONE',  ( 6.047423072554961321E-16, 0.2999999999999988232, 0.1732050807568890904 ) ) ;
#114 = VERTEX_POINT ( 'NONE', #23 ) ;
#115 = APPROVAL_DATE_TIME ( #53, #121 ) ;
#116 =( NAMED_UNIT ( * ) PLANE_ANGLE_UNIT ( ) SI_UNIT ( $, .RADIAN. ) );
#117 = CALENDAR_DATE ( 2021, 8, 10 ) ;
#118 = MANIFOLD_SOLID_BREP ( 'Corps-Déplacer/Copier1[2]', #221 ) ;
#119 = ORIENTED_EDGE ( 'NONE', *, *, #95, .F. ) ;
#120 = ORIENTED_EDGE ( 'NONE', *, *, #193, .F. ) ;
#121 = APPROVAL ( #182, 'UNSPECIFIED' ) ;
#122 = AXIS2_PLACEMENT_3D ( 'NONE', #192, #46, #91 ) ;
#123 = PLANE ( 'NONE',  #85 ) ;
#124 = VERTEX_POINT ( 'NONE', #113 ) ;
#125 = FACE_OUTER_BOUND ( 'NONE', #203, .T. ) ;
#126 = DIRECTION ( 'NONE',  ( 3.491481338843133355E-15, -1.224646799147353207E-16, 1.000000000000000000 ) ) ;
#127 = CONICAL_SURFACE ( 'NONE', #139, 0.2999999999999988232, 1.047197551196592746 ) ;
#128 = CARTESIAN_POINT ( 'NONE',  ( 1.571166602479410010E-14, 0.2999999999999990452, 4.500000000000000000 ) ) ;
#129 = SECURITY_CLASSIFICATION_LEVEL ( 'unclassified' ) ;
#130 = ADVANCED_FACE ( 'NONE', ( #9, #161 ), #157, .T. ) ;
#131 = APPROVAL_PERSON_ORGANIZATION ( #70, #121, #82 ) ;
#132 = CC_DESIGN_APPROVAL ( #121, ( #13 ) ) ;
#133 = APPLICATION_PROTOCOL_DEFINITION ( 'international standard', 'config_control_design', 1994, #87 ) ;
#134 = CARTESIAN_POINT ( 'NONE',  ( 0.0000000000000000000, 0.0000000000000000000, 0.0000000000000000000 ) ) ;
#135 = CC_DESIGN_PERSON_AND_ORGANIZATION_ASSIGNMENT ( #67, #180, ( #223 ) ) ;
#136 = DATE_AND_TIME ( #71, #213 ) ;
#137 = APPROVAL ( #56, 'UNSPECIFIED' ) ;
#138 = DIRECTION ( 'NONE',  ( 3.209883240645405496E-31, 1.000000000000000000, 9.035018104045905207E-17 ) ) ;
#139 = AXIS2_PLACEMENT_3D ( 'NONE', #75, #126, #212 ) ;
#140 = CARTESIAN_POINT ( 'NONE',  ( 1.571166602479410010E-14, -5.510910596163088569E-16, 4.500000000000000000 ) ) ;
#141 = FACE_OUTER_BOUND ( 'NONE', #170, .T. ) ;
#142 = CARTESIAN_POINT ( 'NONE',  ( 0.0000000000000000000, 0.0000000000000000000, 0.0000000000000000000 ) ) ;
#143 = ADVANCED_FACE ( 'NONE', ( #141 ), #25, .F. ) ;
#144 = DIRECTION ( 'NONE',  ( -3.491481338843133355E-15, 1.224646799147353207E-16, -1.000000000000000000 ) ) ;
#145 = COORDINATED_UNIVERSAL_TIME_OFFSET ( 1, 0, .AHEAD. ) ;
#146 = ADVANCED_FACE ( 'NONE', ( #64, #92 ), #7, .T. ) ;
#147 = PERSON_AND_ORGANIZATION_ROLE ( 'creator' ) ;
#148 = PERSON_AND_ORGANIZATION_ROLE ( 'creator' ) ;
#149 = MECHANICAL_CONTEXT ( 'NONE', #104, 'mechanical' ) ;
#150 = COORDINATED_UNIVERSAL_TIME_OFFSET ( 1, 0, .AHEAD. ) ;
#151 = EDGE_LOOP ( 'NONE', ( #185 ) ) ;
#152 = EDGE_LOOP ( 'NONE', ( #167 ) ) ;
#153 = DIRECTION ( 'NONE',  ( -3.491481338843133355E-15, 1.224646799147353207E-16, -1.000000000000000000 ) ) ;
#154 = EDGE_CURVE ( 'NONE', #28, #28, #178, .T. ) ;
#155 = CARTESIAN_POINT ( 'NONE',  ( 1.831774317484237410E-14, -6.424999411312007015E-16, 5.246410161513786363 ) ) ;
#156 = CARTESIAN_POINT ( 'NONE',  ( 1.043952920314096810E-13, -3.661693929450586610E-15, 29.89999999999999858 ) ) ;
#157 = CONICAL_SURFACE ( 'NONE', #90, 0.4999999999999968914, 0.2617993877991421359 ) ;
#158 = DIRECTION ( 'NONE',  ( -3.491481338843133355E-15, 1.224646799147353207E-16, -1.000000000000000000 ) ) ;
#159 = CC_DESIGN_APPROVAL ( #45, ( #112 ) ) ;
#160 = ADVANCED_FACE ( 'NONE', ( #172 ), #123, .F. ) ;
#161 = FACE_OUTER_BOUND ( 'NONE', #169, .T. ) ;
#162 = EDGE_CURVE ( 'NONE', #114, #114, #8, .T. ) ;
#163 = CALENDAR_DATE ( 2021, 8, 10 ) ;
#164 = COORDINATED_UNIVERSAL_TIME_OFFSET ( 1, 0, .AHEAD. ) ;
#165 = CARTESIAN_POINT ( 'NONE',  ( 1.571166602479410010E-14, 0.2999999999999990452, 4.500000000000000000 ) ) ;
#166 = AXIS2_PLACEMENT_3D ( 'NONE', #211, #27, #175 ) ;
#167 = ORIENTED_EDGE ( 'NONE', *, *, #154, .F. ) ;
#168 = LOCAL_TIME ( 7, 53, 38.00000000000000000, #186 ) ;
#169 = EDGE_LOOP ( 'NONE', ( #3 ) ) ;
#170 = EDGE_LOOP ( 'NONE', ( #72 ) ) ;
#171 = CONICAL_SURFACE ( 'NONE', #31, 0.4000000000000000222, 0.7853981633974512766 ) ;
#172 = FACE_OUTER_BOUND ( 'NONE', #103, .T. ) ;
#173 = CARTESIAN_POINT ( 'NONE',  ( 1.047444401652940007E-13, -3.673940397442059178E-15, 30.00000000000000000 ) ) ;
#174 = DIRECTION ( 'NONE',  ( 4.275831445896959482E-31, 1.000000000000000000, 1.224646799147353207E-16 ) ) ;
#175 = DIRECTION ( 'NONE',  ( 0.0000000000000000000, 1.000000000000000000, 0.0000000000000000000 ) ) ;
#176 = CALENDAR_DATE ( 2021, 8, 10 ) ;
#177 = PERSON_AND_ORGANIZATION ( #205, #197 ) ;
#178 = CIRCLE ( 'NONE', #166, 0.2999999999999996003 ) ;
#179 =( LENGTH_UNIT ( ) NAMED_UNIT ( * ) SI_UNIT ( .MILLI., .METRE. ) );
#180 = PERSON_AND_ORGANIZATION_ROLE ( 'design_owner' ) ;
#181 = EDGE_CURVE ( 'NONE', #215, #215, #74, .T. ) ;
#182 = APPROVAL_STATUS ( 'not_yet_approved' ) ;
#183 = CC_DESIGN_DATE_AND_TIME_ASSIGNMENT ( #136, #84, ( #106 ) ) ;
#184 = EDGE_LOOP ( 'NONE', ( #73 ) ) ;
#185 = ORIENTED_EDGE ( 'NONE', *, *, #162, .F. ) ;
#186 = COORDINATED_UNIVERSAL_TIME_OFFSET ( 1, 0, .AHEAD. ) ;
#187 = MANIFOLD_SOLID_BREP ( 'Corps-Déplacer/Copier1[1]', #98 ) ;
#188 = CARTESIAN_POINT ( 'NONE',  ( 6.047423072554960335E-16, -2.121150477449829915E-17, 0.1732050807568890627 ) ) ;
#189 = VERTEX_POINT ( 'NONE', #66 ) ;
#190 = CC_DESIGN_PERSON_AND_ORGANIZATION_ASSIGNMENT ( #101, #15, ( #106 ) ) ;
#191 = AXIS2_PLACEMENT_3D ( 'NONE', #155, #144, #76 ) ;
#192 = CARTESIAN_POINT ( 'NONE',  ( 1.571166602479410010E-14, 2.249639673992775122E-33, 4.500000000000000000 ) ) ;
#193 = EDGE_CURVE ( 'NONE', #54, #54, #100, .T. ) ;
#194 = FACE_BOUND ( 'NONE', #38, .T. ) ;
#195 = DIRECTION ( 'NONE',  ( 0.0000000000000000000, 0.0000000000000000000, 1.000000000000000000 ) ) ;
#196 =( NAMED_UNIT ( * ) SI_UNIT ( $, .STERADIAN. ) SOLID_ANGLE_UNIT ( ) );
#197 = ORGANIZATION ( 'UNSPECIFIED', 'UNSPECIFIED', '' ) ;
#198 = DATE_AND_TIME ( #14, #33 ) ;
#199 = ADVANCED_FACE ( 'NONE', ( #65 ), #127, .T. ) ;
#200 = PRODUCT_DEFINITION_SHAPE ( 'NONE', 'NONE',  #13 ) ;
#201 = COORDINATED_UNIVERSAL_TIME_OFFSET ( 1, 0, .AHEAD. ) ;
#202 = ORIENTED_EDGE ( 'NONE', *, *, #193, .T. ) ;
#203 = EDGE_LOOP ( 'NONE', ( #120 ) ) ;
#204 = AXIS2_PLACEMENT_3D ( 'NONE', #48, #47, #96 ) ;
#205 = PERSON ( 'UNSPECIFIED', 'UNSPECIFIED', 'UNSPECIFIED', ('UNSPECIFIED'), ('UNSPECIFIED'), ('UNSPECIFIED') ) ;
#206 = EDGE_LOOP ( 'NONE', ( #1 ) ) ;
#207 = DIRECTION ( 'NONE',  ( 3.491481338843133355E-15, -1.224646799147353207E-16, 1.000000000000000000 ) ) ;
#208 = ADVANCED_BREP_SHAPE_REPRESENTATION ( '176', ( #187, #118, #77 ), #105 ) ;
#209 = DIRECTION ( 'NONE',  ( -3.491481338843133355E-15, 1.224646799147353207E-16, -1.000000000000000000 ) ) ;
#210 = CARTESIAN_POINT ( 'NONE',  ( 1.571166602479410010E-14, 2.249639673992775122E-33, 4.500000000000000000 ) ) ;
#211 = CARTESIAN_POINT ( 'NONE',  ( 1.571166602479410010E-14, -5.510910596163088569E-16, 4.500000000000000000 ) ) ;
#212 = DIRECTION ( 'NONE',  ( -3.209883240645405496E-31, -1.000000000000000000, -9.035018104045905207E-17 ) ) ;
#213 = LOCAL_TIME ( 7, 53, 38.00000000000000000, #150 ) ;
#214 = UNCERTAINTY_MEASURE_WITH_UNIT (LENGTH_MEASURE( 1.000000000000000082E-05 ), #179, 'distance_accuracy_value', 'NONE');
#215 = VERTEX_POINT ( 'NONE', #34 ) ;
#216 = PERSON_AND_ORGANIZATION ( #205, #197 ) ;
#217 = AXIS2_PLACEMENT_3D ( 'NONE', #210, #51, #50 ) ;
#218 = APPROVAL_PERSON_ORGANIZATION ( #55, #137, #39 ) ;
#219 = PERSON_AND_ORGANIZATION_ROLE ( 'design_supplier' ) ;
#220 = EDGE_LOOP ( 'NONE', ( #202 ) ) ;
#221 = CLOSED_SHELL ( 'NONE', ( #199, #146, #58 ) ) ;
#222 = AXIS2_PLACEMENT_3D ( 'NONE', #188, #10, #138 ) ;
#223 = PRODUCT ( '176', '176', '', ( #149 ) ) ;
ENDSEC;
END-ISO-10303-21;
