ISO-10303-21;
HEADER;
FILE_DESCRIPTION (( 'STEP AP203' ),
    '1' );
FILE_NAME ('1756.STEP',
    '2021-10-05T09:07:15',
    ( '' ),
    ( '' ),
    'SwSTEP 2.0',
    'SolidWorks 2019',
    '' );
FILE_SCHEMA (( 'CONFIG_CONTROL_DESIGN' ));
ENDSEC;

DATA;
#1 = FACE_OUTER_BOUND ( 'NONE', #70, .T. ) ;
#2 = DIRECTION ( 'NONE',  ( -3.491481338843133355E-15, 1.224646799147353207E-16, -1.000000000000000000 ) ) ;
#3 = PERSON_AND_ORGANIZATION ( #76, #22 ) ;
#4 = APPROVAL_PERSON_ORGANIZATION ( #7, #25, #150 ) ;
#5 = APPLICATION_CONTEXT ( 'configuration controlled 3d designs of mechanical parts and assemblies' ) ;
#6 = DATE_AND_TIME ( #104, #95 ) ;
#7 = PERSON_AND_ORGANIZATION ( #76, #22 ) ;
#8 = PERSON_AND_ORGANIZATION_ROLE ( 'creator' ) ;
#9 = ADVANCED_FACE ( 'NONE', ( #91 ), #141, .T. ) ;
#10 = ORIENTED_EDGE ( 'NONE', *, *, #143, .T. ) ;
#11 = LOCAL_TIME ( 11, 7, 15.00000000000000000, #163 ) ;
#12 = CARTESIAN_POINT ( 'NONE',  ( 3.491481338843133355E-14, 8.811088723138353234E-33, 10.00000000000000000 ) ) ;
#13 = DIRECTION ( 'NONE',  ( 3.278178628744249901E-31, 1.000000000000000000, 9.227252531791579627E-17 ) ) ;
#14 = AXIS2_PLACEMENT_3D ( 'NONE', #12, #77, #79 ) ;
#15 = EDGE_LOOP ( 'NONE', ( #168 ) ) ;
#16 = CYLINDRICAL_SURFACE ( 'NONE', #93, 1.174999999999996270 ) ;
#17 = CC_DESIGN_PERSON_AND_ORGANIZATION_ASSIGNMENT ( #56, #161, ( #101 ) ) ;
#18 = AXIS2_PLACEMENT_3D ( 'NONE', #116, #66, #51 ) ;
#19 = MANIFOLD_SOLID_BREP ( 'Corps-Déplacer/Copier1[2]', #43 ) ;
#20 = CARTESIAN_POINT ( 'NONE',  ( 1.396592535537253342E-13, -4.898587196589413026E-15, 40.00000000000000000 ) ) ;
#21 = COORDINATED_UNIVERSAL_TIME_OFFSET ( 1, 0, .AHEAD. ) ;
#22 = ORGANIZATION ( 'UNSPECIFIED', 'UNSPECIFIED', '' ) ;
#23 = MECHANICAL_CONTEXT ( 'NONE', #5, 'mechanical' ) ;
#24 = LOCAL_TIME ( 11, 7, 15.00000000000000000, #68 ) ;
#25 = APPROVAL ( #26, 'UNSPECIFIED' ) ;
#26 = APPROVAL_STATUS ( 'not_yet_approved' ) ;
#27 = CALENDAR_DATE ( 2021, 5, 10 ) ;
#28 = ADVANCED_FACE ( 'NONE', ( #97 ), #156, .F. ) ;
#29 = APPROVAL_ROLE ( '' ) ;
#30 = EDGE_LOOP ( 'NONE', ( #92 ) ) ;
#31 = DIRECTION ( 'NONE',  ( -3.491481338843133355E-15, 1.224646799147353207E-16, -1.000000000000000000 ) ) ;
#32 = FACE_OUTER_BOUND ( 'NONE', #30, .T. ) ;
#33 = AXIS2_PLACEMENT_3D ( 'NONE', #81, #46, #64 ) ;
#34 = CARTESIAN_POINT ( 'NONE',  ( 1.396592535537253342E-13, 6.561449049145540822E-33, 40.00000000000000000 ) ) ;
#35 = VERTEX_POINT ( 'NONE', #160 ) ;
#36 = CARTESIAN_POINT ( 'NONE',  ( 0.0000000000000000000, 0.0000000000000000000, 0.0000000000000000000 ) ) ;
#37 = CC_DESIGN_DATE_AND_TIME_ASSIGNMENT ( #6, #164, ( #159 ) ) ;
#38 = CARTESIAN_POINT ( 'NONE',  ( 2.465025025332055468E-15, 1.174999999999993383, 0.7060112273573875274 ) ) ;
#39 = CIRCLE ( 'NONE', #198, 1.174999999999994715 ) ;
#40 = EDGE_CURVE ( 'NONE', #35, #35, #184, .T. ) ;
#41 = DATE_AND_TIME ( #83, #173 ) ;
#42 = EDGE_LOOP ( 'NONE', ( #152 ) ) ;
#43 = CLOSED_SHELL ( 'NONE', ( #9, #191, #98 ) ) ;
#44 = CARTESIAN_POINT ( 'NONE',  ( 2.465025025332055074E-15, -8.646143897453188059E-17, 0.7060112273573874164 ) ) ;
#45 = FACE_OUTER_BOUND ( 'NONE', #195, .T. ) ;
#46 = DIRECTION ( 'NONE',  ( -3.491481338843133355E-15, 1.224646799147353207E-16, -1.000000000000000000 ) ) ;
#47 = EDGE_CURVE ( 'NONE', #71, #71, #189, .T. ) ;
#48 = AXIS2_PLACEMENT_3D ( 'NONE', #169, #138, #174 ) ;
#49 = PRODUCT_DEFINITION_FORMATION_WITH_SPECIFIED_SOURCE ( 'ANY', '', #62, .NOT_KNOWN. ) ;
#50 = DIRECTION ( 'NONE',  ( 0.0000000000000000000, 1.000000000000000000, 0.0000000000000000000 ) ) ;
#51 = DIRECTION ( 'NONE',  ( -4.275831445896958607E-31, -1.000000000000000000, -1.224646799147353207E-16 ) ) ;
#52 = EDGE_CURVE ( 'NONE', #107, #107, #39, .T. ) ;
#53 = CLOSED_SHELL ( 'NONE', ( #28, #149, #176, #89 ) ) ;
#54 = PERSON_AND_ORGANIZATION ( #76, #22 ) ;
#55 = DIRECTION ( 'NONE',  ( 1.000000000000000000, 0.0000000000000000000, 0.0000000000000000000 ) ) ;
#56 = PERSON_AND_ORGANIZATION ( #76, #22 ) ;
#57 = SHAPE_DEFINITION_REPRESENTATION ( #142, #103 ) ;
#58 = DIRECTION ( 'NONE',  ( 3.491481338843133355E-15, -1.224646799147353207E-16, 1.000000000000000000 ) ) ;
#59 = DIRECTION ( 'NONE',  ( -3.491481338843133355E-15, 1.224646799147353207E-16, -1.000000000000000000 ) ) ;
#60 = EDGE_CURVE ( 'NONE', #193, #193, #157, .T. ) ;
#61 = FACE_OUTER_BOUND ( 'NONE', #115, .T. ) ;
#62 = PRODUCT ( '1756', '1756', '', ( #23 ) ) ;
#63 = PRODUCT_RELATED_PRODUCT_CATEGORY ( 'detail', '', ( #62 ) ) ;
#64 = DIRECTION ( 'NONE',  ( 4.275831445896958607E-31, 1.000000000000000000, 1.224646799147352961E-16 ) ) ;
#65 = CONICAL_SURFACE ( 'NONE', #180, 0.8749999999999982236, 0.7853981633974453924 ) ;
#66 = DIRECTION ( 'NONE',  ( 3.491481338843133355E-15, -1.224646799147353207E-16, 1.000000000000000000 ) ) ;
#67 = APPLICATION_PROTOCOL_DEFINITION ( 'international standard', 'config_control_design', 1994, #135 ) ;
#68 = COORDINATED_UNIVERSAL_TIME_OFFSET ( 1, 0, .AHEAD. ) ;
#69 = APPLICATION_PROTOCOL_DEFINITION ( 'international standard', 'config_control_design', 1994, #5 ) ;
#70 = EDGE_LOOP ( 'NONE', ( #131 ) ) ;
#71 = VERTEX_POINT ( 'NONE', #86 ) ;
#72 = PERSON_AND_ORGANIZATION ( #76, #22 ) ;
#73 = UNCERTAINTY_MEASURE_WITH_UNIT (LENGTH_MEASURE( 1.000000000000000082E-05 ), #102, 'distance_accuracy_value', 'NONE');
#74 = AXIS2_PLACEMENT_3D ( 'NONE', #36, #84, #55 ) ;
#75 = ORIENTED_EDGE ( 'NONE', *, *, #52, .F. ) ;
#76 = PERSON ( 'UNSPECIFIED', 'UNSPECIFIED', 'UNSPECIFIED', ('UNSPECIFIED'), ('UNSPECIFIED'), ('UNSPECIFIED') ) ;
#77 = DIRECTION ( 'NONE',  ( 3.491481338843133355E-15, -1.224646799147353207E-16, 1.000000000000000000 ) ) ;
#78 = AXIS2_PLACEMENT_3D ( 'NONE', #20, #172, #50 ) ;
#79 = DIRECTION ( 'NONE',  ( -4.275831445896958607E-31, -1.000000000000000000, -1.224646799147353207E-16 ) ) ;
#80 = CARTESIAN_POINT ( 'NONE',  ( 1.396592535537253342E-13, -4.898587196589413026E-15, 40.00000000000000000 ) ) ;
#81 = CARTESIAN_POINT ( 'NONE',  ( 0.0000000000000000000, 0.0000000000000000000, 0.0000000000000000000 ) ) ;
#82 = EDGE_LOOP ( 'NONE', ( #94 ) ) ;
#83 = CALENDAR_DATE ( 2021, 5, 10 ) ;
#84 = DIRECTION ( 'NONE',  ( 0.0000000000000000000, 0.0000000000000000000, 1.000000000000000000 ) ) ;
#85 = CARTESIAN_POINT ( 'NONE',  ( 1.386118091520723879E-13, 1.174999999999993383, 39.69999999999999574 ) ) ;
#86 = CARTESIAN_POINT ( 'NONE',  ( 1.396592535537253342E-13, 0.8749999999999933387, 40.00000000000000000 ) ) ;
#87 = APPROVAL_STATUS ( 'not_yet_approved' ) ;
#88 = MANIFOLD_SOLID_BREP ( 'Corps-Déplacer/Copier1[1]', #53 ) ;
#89 = ADVANCED_FACE ( 'NONE', ( #124 ), #137, .F. ) ;
#90 = CALENDAR_DATE ( 2021, 5, 10 ) ;
#91 = FACE_OUTER_BOUND ( 'NONE', #82, .T. ) ;
#92 = ORIENTED_EDGE ( 'NONE', *, *, #143, .F. ) ;
#93 = AXIS2_PLACEMENT_3D ( 'NONE', #190, #114, #170 ) ;
#94 = ORIENTED_EDGE ( 'NONE', *, *, #60, .T. ) ;
#95 = LOCAL_TIME ( 11, 7, 15.00000000000000000, #146 ) ;
#96 = CC_DESIGN_PERSON_AND_ORGANIZATION_ASSIGNMENT ( #130, #178, ( #62 ) ) ;
#97 = FACE_OUTER_BOUND ( 'NONE', #15, .T. ) ;
#98 = ADVANCED_FACE ( 'NONE', ( #1 ), #113, .T. ) ;
#99 = DATE_AND_TIME ( #27, #11 ) ;
#100 = APPROVAL_ROLE ( '' ) ;
#101 = SECURITY_CLASSIFICATION ( '', '', #197 ) ;
#102 =( LENGTH_UNIT ( ) NAMED_UNIT ( * ) SI_UNIT ( .MILLI., .METRE. ) );
#103 = ADVANCED_BREP_SHAPE_REPRESENTATION ( '1756', ( #88, #19, #74 ), #171 ) ;
#104 = CALENDAR_DATE ( 2021, 5, 10 ) ;
#105 = CC_DESIGN_DATE_AND_TIME_ASSIGNMENT ( #41, #110, ( #101 ) ) ;
#106 = AXIS2_PLACEMENT_3D ( 'NONE', #44, #2, #13 ) ;
#107 = VERTEX_POINT ( 'NONE', #175 ) ;
#108 = CC_DESIGN_APPROVAL ( #25, ( #49 ) ) ;
#109 = CC_DESIGN_PERSON_AND_ORGANIZATION_ASSIGNMENT ( #72, #133, ( #49 ) ) ;
#110 = DATE_TIME_ROLE ( 'classification_date' ) ;
#111 = EDGE_LOOP ( 'NONE', ( #147 ) ) ;
#112 = AXIS2_PLACEMENT_3D ( 'NONE', #123, #58, #144 ) ;
#113 = PLANE ( 'NONE',  #14 ) ;
#114 = DIRECTION ( 'NONE',  ( -3.491481338843133355E-15, 1.224646799147353207E-16, -1.000000000000000000 ) ) ;
#115 = EDGE_LOOP ( 'NONE', ( #183 ) ) ;
#116 = CARTESIAN_POINT ( 'NONE',  ( 3.491481338843133355E-14, 8.811088723138353234E-33, 10.00000000000000000 ) ) ;
#117 = CC_DESIGN_PERSON_AND_ORGANIZATION_ASSIGNMENT ( #54, #120, ( #159 ) ) ;
#118 = DIRECTION ( 'NONE',  ( 4.275831445896958607E-31, 1.000000000000000000, 1.224646799147353207E-16 ) ) ;
#119 = PERSON_AND_ORGANIZATION ( #76, #22 ) ;
#120 = PERSON_AND_ORGANIZATION_ROLE ( 'creator' ) ;
#121 = CIRCLE ( 'NONE', #48, 1.174999999999998046 ) ;
#122 = LOCAL_TIME ( 11, 7, 15.00000000000000000, #153 ) ;
#123 = CARTESIAN_POINT ( 'NONE',  ( 2.465025025332055074E-15, -8.646143897453188059E-17, 0.7060112273573874164 ) ) ;
#124 = FACE_OUTER_BOUND ( 'NONE', #140, .T. ) ;
#125 = FACE_OUTER_BOUND ( 'NONE', #42, .T. ) ;
#126 = APPROVAL ( #87, 'UNSPECIFIED' ) ;
#127 = DIRECTION ( 'NONE',  ( 0.0000000000000000000, 1.000000000000000000, 0.0000000000000000000 ) ) ;
#128 = APPROVAL_PERSON_ORGANIZATION ( #154, #203, #29 ) ;
#129 = CALENDAR_DATE ( 2021, 5, 10 ) ;
#130 = PERSON_AND_ORGANIZATION ( #76, #22 ) ;
#131 = ORIENTED_EDGE ( 'NONE', *, *, #40, .F. ) ;
#132 = DATE_AND_TIME ( #129, #24 ) ;
#133 = PERSON_AND_ORGANIZATION_ROLE ( 'design_supplier' ) ;
#134 = APPROVAL_PERSON_ORGANIZATION ( #119, #126, #100 ) ;
#135 = APPLICATION_CONTEXT ( 'configuration controlled 3d designs of mechanical parts and assemblies' ) ;
#136 = CC_DESIGN_SECURITY_CLASSIFICATION ( #101, ( #49 ) ) ;
#137 = PLANE ( 'NONE',  #162 ) ;
#138 = DIRECTION ( 'NONE',  ( -3.491481338843133355E-15, 1.224646799147353207E-16, -1.000000000000000000 ) ) ;
#139 = DIRECTION ( 'NONE',  ( -3.491481338843133355E-15, 1.224646799147353207E-16, -1.000000000000000000 ) ) ;
#140 = EDGE_LOOP ( 'NONE', ( #166 ) ) ;
#141 = CONICAL_SURFACE ( 'NONE', #112, 1.174999999999993383, 1.029744258676649427 ) ;
#142 = PRODUCT_DEFINITION_SHAPE ( 'NONE', 'NONE',  #159 ) ;
#143 = EDGE_CURVE ( 'NONE', #177, #177, #121, .T. ) ;
#144 = DIRECTION ( 'NONE',  ( -3.278178628744249901E-31, -1.000000000000000000, -9.227252531791579627E-17 ) ) ;
#145 = CC_DESIGN_APPROVAL ( #203, ( #101 ) ) ;
#146 = COORDINATED_UNIVERSAL_TIME_OFFSET ( 1, 0, .AHEAD. ) ;
#147 = ORIENTED_EDGE ( 'NONE', *, *, #47, .T. ) ;
#148 =( NAMED_UNIT ( * ) SI_UNIT ( $, .STERADIAN. ) SOLID_ANGLE_UNIT ( ) );
#149 = ADVANCED_FACE ( 'NONE', ( #201, #45 ), #16, .T. ) ;
#150 = APPROVAL_ROLE ( '' ) ;
#151 = DESIGN_CONTEXT ( 'detailed design', #135, 'design' ) ;
#152 = ORIENTED_EDGE ( 'NONE', *, *, #40, .T. ) ;
#153 = COORDINATED_UNIVERSAL_TIME_OFFSET ( 1, 0, .AHEAD. ) ;
#154 = PERSON_AND_ORGANIZATION ( #76, #22 ) ;
#155 = CARTESIAN_POINT ( 'NONE',  ( 3.491481338843133355E-14, -1.224646799147353256E-15, 10.00000000000000000 ) ) ;
#156 = PLANE ( 'NONE',  #18 ) ;
#157 = CIRCLE ( 'NONE', #106, 1.174999999999993383 ) ;
#158 = FACE_BOUND ( 'NONE', #111, .T. ) ;
#159 = PRODUCT_DEFINITION ( 'UNKNOWN', '', #49, #151 ) ;
#160 = CARTESIAN_POINT ( 'NONE',  ( 3.491481338843133355E-14, 1.174999999999993383, 10.00000000000000000 ) ) ;
#161 = PERSON_AND_ORGANIZATION_ROLE ( 'classification_officer' ) ;
#162 = AXIS2_PLACEMENT_3D ( 'NONE', #34, #200, #118 ) ;
#163 = COORDINATED_UNIVERSAL_TIME_OFFSET ( 1, 0, .AHEAD. ) ;
#164 = DATE_TIME_ROLE ( 'creation_date' ) ;
#165 = APPROVAL_DATE_TIME ( #199, #203 ) ;
#166 = ORIENTED_EDGE ( 'NONE', *, *, #47, .F. ) ;
#167 = AXIS2_PLACEMENT_3D ( 'NONE', #188, #59, #185 ) ;
#168 = ORIENTED_EDGE ( 'NONE', *, *, #52, .T. ) ;
#169 = CARTESIAN_POINT ( 'NONE',  ( 1.386118091520723879E-13, -4.861847792614992166E-15, 39.69999999999999574 ) ) ;
#170 = DIRECTION ( 'NONE',  ( 4.275831445896959482E-31, 1.000000000000000000, 1.224646799147353454E-16 ) ) ;
#171 =( GEOMETRIC_REPRESENTATION_CONTEXT ( 3 ) GLOBAL_UNCERTAINTY_ASSIGNED_CONTEXT ( ( #73 ) ) GLOBAL_UNIT_ASSIGNED_CONTEXT ( ( #102, #192, #148 ) ) REPRESENTATION_CONTEXT ( 'NONE', 'WORKASPACE' ) );
#172 = DIRECTION ( 'NONE',  ( -3.491481338843133355E-15, 1.224646799147353207E-16, -1.000000000000000000 ) ) ;
#173 = LOCAL_TIME ( 11, 7, 15.00000000000000000, #21 ) ;
#174 = DIRECTION ( 'NONE',  ( 0.0000000000000000000, 1.000000000000000000, 0.0000000000000000000 ) ) ;
#175 = CARTESIAN_POINT ( 'NONE',  ( 3.491481338843133355E-14, 1.174999999999993383, 10.00000000000000000 ) ) ;
#176 = ADVANCED_FACE ( 'NONE', ( #32, #158 ), #65, .T. ) ;
#177 = VERTEX_POINT ( 'NONE', #85 ) ;
#178 = PERSON_AND_ORGANIZATION_ROLE ( 'design_owner' ) ;
#179 = CC_DESIGN_PERSON_AND_ORGANIZATION_ASSIGNMENT ( #3, #8, ( #49 ) ) ;
#180 = AXIS2_PLACEMENT_3D ( 'NONE', #80, #139, #202 ) ;
#181 = CC_DESIGN_APPROVAL ( #126, ( #159 ) ) ;
#182 = APPROVAL_STATUS ( 'not_yet_approved' ) ;
#183 = ORIENTED_EDGE ( 'NONE', *, *, #60, .F. ) ;
#184 = CIRCLE ( 'NONE', #167, 1.174999999999994715 ) ;
#185 = DIRECTION ( 'NONE',  ( 0.0000000000000000000, 1.000000000000000000, 0.0000000000000000000 ) ) ;
#186 = EDGE_LOOP ( 'NONE', ( #75 ) ) ;
#187 = CYLINDRICAL_SURFACE ( 'NONE', #33, 1.174999999999994049 ) ;
#188 = CARTESIAN_POINT ( 'NONE',  ( 3.491481338843133355E-14, -1.224646799147353256E-15, 10.00000000000000000 ) ) ;
#189 = CIRCLE ( 'NONE', #78, 0.8749999999999982236 ) ;
#190 = CARTESIAN_POINT ( 'NONE',  ( 0.0000000000000000000, 0.0000000000000000000, 0.0000000000000000000 ) ) ;
#191 = ADVANCED_FACE ( 'NONE', ( #61, #125 ), #187, .T. ) ;
#192 =( NAMED_UNIT ( * ) PLANE_ANGLE_UNIT ( ) SI_UNIT ( $, .RADIAN. ) );
#193 = VERTEX_POINT ( 'NONE', #38 ) ;
#194 = APPROVAL_DATE_TIME ( #99, #126 ) ;
#195 = EDGE_LOOP ( 'NONE', ( #10 ) ) ;
#196 = APPROVAL_DATE_TIME ( #132, #25 ) ;
#197 = SECURITY_CLASSIFICATION_LEVEL ( 'unclassified' ) ;
#198 = AXIS2_PLACEMENT_3D ( 'NONE', #155, #31, #127 ) ;
#199 = DATE_AND_TIME ( #90, #122 ) ;
#200 = DIRECTION ( 'NONE',  ( -3.491481338843133355E-15, 1.224646799147353207E-16, -1.000000000000000000 ) ) ;
#201 = FACE_OUTER_BOUND ( 'NONE', #186, .T. ) ;
#202 = DIRECTION ( 'NONE',  ( 0.0000000000000000000, 1.000000000000000000, 0.0000000000000000000 ) ) ;
#203 = APPROVAL ( #182, 'UNSPECIFIED' ) ;
ENDSEC;
END-ISO-10303-21;
