ISO-10303-21;
HEADER;
FILE_DESCRIPTION (( 'STEP AP203' ),
    '1' );
FILE_NAME ('1688.step',
    '2021-12-06T12:58:26',
    ( '' ),
    ( '' ),
    'SwSTEP 2.0',
    'SolidWorks 2019',
    '' );
FILE_SCHEMA (( 'CONFIG_CONTROL_DESIGN' ));
ENDSEC;

DATA;
#1 = DATE_AND_TIME ( #53, #122 ) ;
#2 = ADVANCED_FACE ( 'NONE', ( #124, #8 ), #54, .T. ) ;
#3 = DIRECTION ( 'NONE',  ( -3.491481338843133355E-15, 5.948284453001427680E-16, -1.000000000000000000 ) ) ;
#4 = DIRECTION ( 'NONE',  ( 2.076832416578522051E-30, 1.000000000000000000, 5.948284453001427680E-16 ) ) ;
#5 = CC_DESIGN_PERSON_AND_ORGANIZATION_ASSIGNMENT ( #22, #102, ( #65 ) ) ;
#6 = MANIFOLD_SOLID_BREP ( 'Corps-Déplacer/Copier1', #96 ) ;
#7 = COORDINATED_UNIVERSAL_TIME_OFFSET ( 1, 0, .AHEAD. ) ;
#8 = FACE_OUTER_BOUND ( 'NONE', #154, .T. ) ;
#9 = VERTEX_POINT ( 'NONE', #125 ) ;
#10 = AXIS2_PLACEMENT_3D ( 'NONE', #112, #139, #165 ) ;
#11 = APPROVAL_STATUS ( 'not_yet_approved' ) ;
#12 = ORIENTED_EDGE ( 'NONE', *, *, #19, .F. ) ;
#13 = CALENDAR_DATE ( 2021, 6, 12 ) ;
#14 = AXIS2_PLACEMENT_3D ( 'NONE', #133, #17, #4 ) ;
#15 = CC_DESIGN_SECURITY_CLASSIFICATION ( #66, ( #135 ) ) ;
#16 = DIRECTION ( 'NONE',  ( -3.491481338843133355E-15, 5.948284453001427680E-16, -1.000000000000000000 ) ) ;
#17 = DIRECTION ( 'NONE',  ( -3.491481338843133355E-15, 5.948284453001427680E-16, -1.000000000000000000 ) ) ;
#18 = AXIS2_PLACEMENT_3D ( 'NONE', #77, #16, #62 ) ;
#19 = EDGE_CURVE ( 'NONE', #69, #69, #80, .T. ) ;
#20 = APPROVAL_ROLE ( '' ) ;
#21 = DIRECTION ( 'NONE',  ( 2.070374690216278542E-30, 1.000000000000000000, 5.963111948670274387E-16 ) ) ;
#22 = PERSON_AND_ORGANIZATION ( #160, #27 ) ;
#23 = LOCAL_TIME ( 13, 58, 26.00000000000000000, #7 ) ;
#24 = APPROVAL_DATE_TIME ( #153, #145 ) ;
#25 = APPROVAL_STATUS ( 'not_yet_approved' ) ;
#26 = EDGE_CURVE ( 'NONE', #9, #9, #55, .T. ) ;
#27 = ORGANIZATION ( 'UNSPECIFIED', 'UNSPECIFIED', '' ) ;
#28 = APPROVAL_PERSON_ORGANIZATION ( #116, #38, #101 ) ;
#29 = PLANE ( 'NONE',  #18 ) ;
#30 = DIRECTION ( 'NONE',  ( -3.491481338843133355E-15, 5.948284453001427680E-16, -1.000000000000000000 ) ) ;
#31 = CALENDAR_DATE ( 2021, 6, 12 ) ;
#32 = APPROVAL_DATE_TIME ( #151, #148 ) ;
#33 = ORIENTED_EDGE ( 'NONE', *, *, #26, .F. ) ;
#34 = PERSON_AND_ORGANIZATION_ROLE ( 'design_owner' ) ;
#35 = ORIENTED_EDGE ( 'NONE', *, *, #45, .F. ) ;
#36 = DATE_AND_TIME ( #31, #111 ) ;
#37 = PERSON_AND_ORGANIZATION_ROLE ( 'classification_officer' ) ;
#38 = APPROVAL ( #25, 'UNSPECIFIED' ) ;
#39 = FACE_OUTER_BOUND ( 'NONE', #68, .T. ) ;
#40 = FACE_OUTER_BOUND ( 'NONE', #46, .T. ) ;
#41 = DESIGN_CONTEXT ( 'detailed design', #158, 'design' ) ;
#42 = ORIENTED_EDGE ( 'NONE', *, *, #19, .T. ) ;
#43 = CARTESIAN_POINT ( 'NONE',  ( 1.222018468595097266E-15, 4.000000000000000000, 0.3500000000000001443 ) ) ;
#44 = CALENDAR_DATE ( 2021, 6, 12 ) ;
#45 = EDGE_CURVE ( 'NONE', #83, #83, #47, .T. ) ;
#46 = EDGE_LOOP ( 'NONE', ( #87 ) ) ;
#47 = CIRCLE ( 'NONE', #14, 4.000000000000000000 ) ;
#48 = DATE_TIME_ROLE ( 'classification_date' ) ;
#49 = AXIS2_PLACEMENT_3D ( 'NONE', #72, #127, #50 ) ;
#50 = DIRECTION ( 'NONE',  ( 2.080004339938214721E-30, 1.000000000000000000, 5.941427905220564298E-16 ) ) ;
#51 = CARTESIAN_POINT ( 'NONE',  ( 0.0000000000000000000, 0.0000000000000000000, 0.0000000000000000000 ) ) ;
#52 = AXIS2_PLACEMENT_3D ( 'NONE', #161, #30, #21 ) ;
#53 = CALENDAR_DATE ( 2021, 6, 12 ) ;
#54 = PLANE ( 'NONE',  #10 ) ;
#55 = CIRCLE ( 'NONE', #149, 12.50000000000000000 ) ;
#56 = VERTEX_POINT ( 'NONE', #43 ) ;
#57 = APPROVAL_ROLE ( '' ) ;
#58 = EDGE_LOOP ( 'NONE', ( #168 ) ) ;
#59 = DATE_TIME_ROLE ( 'creation_date' ) ;
#60 =( GEOMETRIC_REPRESENTATION_CONTEXT ( 3 ) GLOBAL_UNCERTAINTY_ASSIGNED_CONTEXT ( ( #136 ) ) GLOBAL_UNIT_ASSIGNED_CONTEXT ( ( #113, #97, #163 ) ) REPRESENTATION_CONTEXT ( 'NONE', 'WORKASPACE' ) );
#61 = CC_DESIGN_PERSON_AND_ORGANIZATION_ASSIGNMENT ( #90, #123, ( #135 ) ) ;
#62 = DIRECTION ( 'NONE',  ( 2.076832416578522051E-30, 1.000000000000000000, 5.948284453001427680E-16 ) ) ;
#63 = DIRECTION ( 'NONE',  ( -3.491481338843133355E-15, 5.948284453001427680E-16, -1.000000000000000000 ) ) ;
#64 = APPROVAL_PERSON_ORGANIZATION ( #141, #148, #20 ) ;
#65 = PRODUCT_DEFINITION ( 'UNKNOWN', '', #135, #41 ) ;
#66 = SECURITY_CLASSIFICATION ( '', '', #114 ) ;
#67 = PERSON_AND_ORGANIZATION_ROLE ( 'creator' ) ;
#68 = EDGE_LOOP ( 'NONE', ( #99 ) ) ;
#69 = VERTEX_POINT ( 'NONE', #100 ) ;
#70 = APPROVAL_DATE_TIME ( #1, #38 ) ;
#71 = PRODUCT ( '1688', '1688', '', ( #156 ) ) ;
#72 = CARTESIAN_POINT ( 'NONE',  ( 1.222018468595071431E-15, -2.081899558550456646E-16, 0.3499999999999927058 ) ) ;
#73 = AXIS2_PLACEMENT_3D ( 'NONE', #119, #3, #159 ) ;
#74 = SHAPE_DEFINITION_REPRESENTATION ( #140, #137 ) ;
#75 = EDGE_LOOP ( 'NONE', ( #33 ) ) ;
#76 = AXIS2_PLACEMENT_3D ( 'NONE', #51, #106, #93 ) ;
#77 = CARTESIAN_POINT ( 'NONE',  ( -8.826537770458718980E-30, 4.000000000000000000, -2.528020892525607060E-15 ) ) ;
#78 = CC_DESIGN_DATE_AND_TIME_ASSIGNMENT ( #143, #48, ( #66 ) ) ;
#79 = CARTESIAN_POINT ( 'NONE',  ( -2.596040520723152196E-29, 4.422760991727312022E-30, -7.435355566251783614E-15 ) ) ;
#80 = CIRCLE ( 'NONE', #49, 12.50000000000000000 ) ;
#81 = PRODUCT_RELATED_PRODUCT_CATEGORY ( 'detail', '', ( #71 ) ) ;
#82 = COORDINATED_UNIVERSAL_TIME_OFFSET ( 1, 0, .AHEAD. ) ;
#83 = VERTEX_POINT ( 'NONE', #166 ) ;
#84 = APPLICATION_PROTOCOL_DEFINITION ( 'international standard', 'config_control_design', 1994, #169 ) ;
#85 = EDGE_LOOP ( 'NONE', ( #42 ) ) ;
#86 = CARTESIAN_POINT ( 'NONE',  ( 0.0000000000000000000, 0.0000000000000000000, 0.0000000000000000000 ) ) ;
#87 = ORIENTED_EDGE ( 'NONE', *, *, #45, .T. ) ;
#88 = CC_DESIGN_APPROVAL ( #145, ( #66 ) ) ;
#89 = PERSON_AND_ORGANIZATION ( #160, #27 ) ;
#90 = PERSON_AND_ORGANIZATION ( #160, #27 ) ;
#91 = ADVANCED_FACE ( 'NONE', ( #40, #147 ), #120, .F. ) ;
#92 = FACE_BOUND ( 'NONE', #142, .T. ) ;
#93 = DIRECTION ( 'NONE',  ( 2.076832416578522051E-30, 1.000000000000000000, 5.948284453001427680E-16 ) ) ;
#94 = CC_DESIGN_APPROVAL ( #38, ( #135 ) ) ;
#95 = CC_DESIGN_PERSON_AND_ORGANIZATION_ASSIGNMENT ( #89, #37, ( #66 ) ) ;
#96 = CLOSED_SHELL ( 'NONE', ( #109, #103, #2, #91 ) ) ;
#97 =( NAMED_UNIT ( * ) PLANE_ANGLE_UNIT ( ) SI_UNIT ( $, .RADIAN. ) );
#98 = DIRECTION ( 'NONE',  ( 0.0000000000000000000, 0.0000000000000000000, 1.000000000000000000 ) ) ;
#99 = ORIENTED_EDGE ( 'NONE', *, *, #26, .T. ) ;
#100 = CARTESIAN_POINT ( 'NONE',  ( 1.222018468595097463E-15, 12.50000000000000000, 0.3500000000000001443 ) ) ;
#101 = APPROVAL_ROLE ( '' ) ;
#102 = PERSON_AND_ORGANIZATION_ROLE ( 'creator' ) ;
#103 = ADVANCED_FACE ( 'NONE', ( #108, #146 ), #121, .T. ) ;
#104 = PERSON_AND_ORGANIZATION ( #160, #27 ) ;
#105 = CC_DESIGN_APPROVAL ( #148, ( #65 ) ) ;
#106 = DIRECTION ( 'NONE',  ( -3.491481338843133355E-15, 5.948284453001427680E-16, -1.000000000000000000 ) ) ;
#107 = AXIS2_PLACEMENT_3D ( 'NONE', #86, #98, #155 ) ;
#108 = FACE_OUTER_BOUND ( 'NONE', #85, .T. ) ;
#109 = ADVANCED_FACE ( 'NONE', ( #39, #92 ), #29, .T. ) ;
#110 = CALENDAR_DATE ( 2021, 6, 12 ) ;
#111 = LOCAL_TIME ( 13, 58, 26.00000000000000000, #144 ) ;
#112 = CARTESIAN_POINT ( 'NONE',  ( 1.222018468595088391E-15, 4.000000000000000000, 0.3499999999999975908 ) ) ;
#113 =( LENGTH_UNIT ( ) NAMED_UNIT ( * ) SI_UNIT ( .MILLI., .METRE. ) );
#114 = SECURITY_CLASSIFICATION_LEVEL ( 'unclassified' ) ;
#115 = ORIENTED_EDGE ( 'NONE', *, *, #132, .T. ) ;
#116 = PERSON_AND_ORGANIZATION ( #160, #27 ) ;
#117 = CC_DESIGN_DATE_AND_TIME_ASSIGNMENT ( #36, #59, ( #65 ) ) ;
#118 = APPROVAL_PERSON_ORGANIZATION ( #104, #145, #57 ) ;
#119 = CARTESIAN_POINT ( 'NONE',  ( 0.0000000000000000000, 0.0000000000000000000, 0.0000000000000000000 ) ) ;
#120 = CYLINDRICAL_SURFACE ( 'NONE', #76, 4.000000000000000000 ) ;
#121 = CYLINDRICAL_SURFACE ( 'NONE', #73, 12.50000000000000000 ) ;
#122 = LOCAL_TIME ( 13, 58, 26.00000000000000000, #150 ) ;
#123 = PERSON_AND_ORGANIZATION_ROLE ( 'design_supplier' ) ;
#124 = FACE_BOUND ( 'NONE', #152, .T. ) ;
#125 = CARTESIAN_POINT ( 'NONE',  ( 5.473822126268816683E-45, 12.50000000000000000, 0.0000000000000000000 ) ) ;
#126 = PERSON_AND_ORGANIZATION ( #160, #27 ) ;
#127 = DIRECTION ( 'NONE',  ( -3.491481338843133355E-15, 5.948284453001427680E-16, -1.000000000000000000 ) ) ;
#128 = COORDINATED_UNIVERSAL_TIME_OFFSET ( 1, 0, .AHEAD. ) ;
#129 = CC_DESIGN_PERSON_AND_ORGANIZATION_ASSIGNMENT ( #126, #67, ( #135 ) ) ;
#130 = PERSON_AND_ORGANIZATION ( #160, #27 ) ;
#131 = CIRCLE ( 'NONE', #52, 4.000000000000000000 ) ;
#132 = EDGE_CURVE ( 'NONE', #56, #56, #131, .T. ) ;
#133 = CARTESIAN_POINT ( 'NONE',  ( -8.307329666314088204E-30, 1.415283517352739826E-30, -2.379313781200571072E-15 ) ) ;
#134 = DIRECTION ( 'NONE',  ( 2.076832416578522051E-30, 1.000000000000000000, 5.948284453001426694E-16 ) ) ;
#135 = PRODUCT_DEFINITION_FORMATION_WITH_SPECIFIED_SOURCE ( 'ANY', '', #71, .NOT_KNOWN. ) ;
#136 = UNCERTAINTY_MEASURE_WITH_UNIT (LENGTH_MEASURE( 1.000000000000000082E-05 ), #113, 'distance_accuracy_value', 'NONE');
#137 = ADVANCED_BREP_SHAPE_REPRESENTATION ( '1688', ( #6, #107 ), #60 ) ;
#138 = APPROVAL_STATUS ( 'not_yet_approved' ) ;
#139 = DIRECTION ( 'NONE',  ( 3.491481338843133355E-15, -5.948284453001427680E-16, 1.000000000000000000 ) ) ;
#140 = PRODUCT_DEFINITION_SHAPE ( 'NONE', 'NONE',  #65 ) ;
#141 = PERSON_AND_ORGANIZATION ( #160, #27 ) ;
#142 = EDGE_LOOP ( 'NONE', ( #35 ) ) ;
#143 = DATE_AND_TIME ( #110, #23 ) ;
#144 = COORDINATED_UNIVERSAL_TIME_OFFSET ( 1, 0, .AHEAD. ) ;
#145 = APPROVAL ( #11, 'UNSPECIFIED' ) ;
#146 = FACE_OUTER_BOUND ( 'NONE', #75, .T. ) ;
#147 = FACE_OUTER_BOUND ( 'NONE', #58, .T. ) ;
#148 = APPROVAL ( #138, 'UNSPECIFIED' ) ;
#149 = AXIS2_PLACEMENT_3D ( 'NONE', #79, #63, #134 ) ;
#150 = COORDINATED_UNIVERSAL_TIME_OFFSET ( 1, 0, .AHEAD. ) ;
#151 = DATE_AND_TIME ( #13, #164 ) ;
#152 = EDGE_LOOP ( 'NONE', ( #115 ) ) ;
#153 = DATE_AND_TIME ( #44, #162 ) ;
#154 = EDGE_LOOP ( 'NONE', ( #12 ) ) ;
#155 = DIRECTION ( 'NONE',  ( 1.000000000000000000, 0.0000000000000000000, 0.0000000000000000000 ) ) ;
#156 = MECHANICAL_CONTEXT ( 'NONE', #169, 'mechanical' ) ;
#157 = CC_DESIGN_PERSON_AND_ORGANIZATION_ASSIGNMENT ( #130, #34, ( #71 ) ) ;
#158 = APPLICATION_CONTEXT ( 'configuration controlled 3d designs of mechanical parts and assemblies' ) ;
#159 = DIRECTION ( 'NONE',  ( 2.076832416578522051E-30, 1.000000000000000000, 5.948284453001426694E-16 ) ) ;
#160 = PERSON ( 'UNSPECIFIED', 'UNSPECIFIED', 'UNSPECIFIED', ('UNSPECIFIED'), ('UNSPECIFIED'), ('UNSPECIFIED') ) ;
#161 = CARTESIAN_POINT ( 'NONE',  ( 1.222018468595088983E-15, -2.081899558550486475E-16, 0.3499999999999977573 ) ) ;
#162 = LOCAL_TIME ( 13, 58, 26.00000000000000000, #128 ) ;
#163 =( NAMED_UNIT ( * ) SI_UNIT ( $, .STERADIAN. ) SOLID_ANGLE_UNIT ( ) );
#164 = LOCAL_TIME ( 13, 58, 26.00000000000000000, #82 ) ;
#165 = DIRECTION ( 'NONE',  ( -2.076832416578522051E-30, -1.000000000000000000, -5.948284453001427680E-16 ) ) ;
#166 = CARTESIAN_POINT ( 'NONE',  ( 0.0000000000000000000, 4.000000000000000000, 0.0000000000000000000 ) ) ;
#167 = APPLICATION_PROTOCOL_DEFINITION ( 'international standard', 'config_control_design', 1994, #158 ) ;
#168 = ORIENTED_EDGE ( 'NONE', *, *, #132, .F. ) ;
#169 = APPLICATION_CONTEXT ( 'configuration controlled 3d designs of mechanical parts and assemblies' ) ;
ENDSEC;
END-ISO-10303-21;
