ISO-10303-21;
HEADER;
FILE_DESCRIPTION (( 'STEP AP203' ),
    '1' );
FILE_NAME ('1663.step',
    '2021-12-06T12:58:25',
    ( '' ),
    ( '' ),
    'SwSTEP 2.0',
    'SolidWorks 2019',
    '' );
FILE_SCHEMA (( 'CONFIG_CONTROL_DESIGN' ));
ENDSEC;

DATA;
#1 = FACE_BOUND ( 'NONE', #27, .T. ) ;
#2 =( NAMED_UNIT ( * ) SI_UNIT ( $, .STERADIAN. ) SOLID_ANGLE_UNIT ( ) );
#3 = PERSON_AND_ORGANIZATION_ROLE ( 'classification_officer' ) ;
#4 = PERSON_AND_ORGANIZATION ( #162, #70 ) ;
#5 = CC_DESIGN_PERSON_AND_ORGANIZATION_ASSIGNMENT ( #109, #40, ( #159 ) ) ;
#6 = ORIENTED_EDGE ( 'NONE', *, *, #110, .T. ) ;
#7 = CC_DESIGN_APPROVAL ( #76, ( #82 ) ) ;
#8 = PLANE ( 'NONE',  #95 ) ;
#9 = DIRECTION ( 'NONE',  ( -3.491481338843133355E-15, 1.892635962318636551E-16, -1.000000000000000000 ) ) ;
#10 = CC_DESIGN_PERSON_AND_ORGANIZATION_ASSIGNMENT ( #4, #3, ( #82 ) ) ;
#11 = CARTESIAN_POINT ( 'NONE',  ( 3.840629472727447480E-15, 6.499999999999999112, 1.100000000000000089 ) ) ;
#12 = AXIS2_PLACEMENT_3D ( 'NONE', #35, #36, #167 ) ;
#13 = DATE_AND_TIME ( #92, #25 ) ;
#14 = DATE_TIME_ROLE ( 'creation_date' ) ;
#15 = ADVANCED_FACE ( 'NONE', ( #118, #63 ), #8, .T. ) ;
#16 = APPROVAL_PERSON_ORGANIZATION ( #71, #169, #58 ) ;
#17 = APPLICATION_PROTOCOL_DEFINITION ( 'international standard', 'config_control_design', 1994, #45 ) ;
#18 = DIRECTION ( 'NONE',  ( -3.491481338843133355E-15, 1.892635962318636551E-16, -1.000000000000000000 ) ) ;
#19 = LOCAL_TIME ( 13, 58, 25.00000000000000000, #134 ) ;
#20 = CARTESIAN_POINT ( 'NONE',  ( 0.0000000000000000000, 0.0000000000000000000, 0.0000000000000000000 ) ) ;
#21 = AXIS2_PLACEMENT_3D ( 'NONE', #30, #97, #114 ) ;
#22 = CARTESIAN_POINT ( 'NONE',  ( 0.0000000000000000000, 25.00000000000000000, 0.0000000000000000000 ) ) ;
#23 = CALENDAR_DATE ( 2021, 6, 12 ) ;
#24 = EDGE_CURVE ( 'NONE', #38, #38, #85, .T. ) ;
#25 = LOCAL_TIME ( 13, 58, 25.00000000000000000, #158 ) ;
#26 = DATE_TIME_ROLE ( 'classification_date' ) ;
#27 = EDGE_LOOP ( 'NONE', ( #161 ) ) ;
#28 = CLOSED_SHELL ( 'NONE', ( #156, #141, #15, #152 ) ) ;
#29 = DESIGN_CONTEXT ( 'detailed design', #45, 'design' ) ;
#30 = CARTESIAN_POINT ( 'NONE',  ( 0.0000000000000000000, 0.0000000000000000000, 0.0000000000000000000 ) ) ;
#31 = PERSON_AND_ORGANIZATION ( #162, #70 ) ;
#32 = CC_DESIGN_PERSON_AND_ORGANIZATION_ASSIGNMENT ( #31, #47, ( #98 ) ) ;
#33 = CIRCLE ( 'NONE', #12, 25.00000000000000000 ) ;
#34 = DIRECTION ( 'NONE',  ( -3.491481338843133355E-15, 1.892635962318636551E-16, -1.000000000000000000 ) ) ;
#35 = CARTESIAN_POINT ( 'NONE',  ( -1.652025785914733904E-29, 8.955177214654479300E-31, -4.731589905796591796E-15 ) ) ;
#36 = DIRECTION ( 'NONE',  ( -3.491481338843133355E-15, 1.892635962318636551E-16, -1.000000000000000000 ) ) ;
#37 = CC_DESIGN_APPROVAL ( #43, ( #159 ) ) ;
#38 = VERTEX_POINT ( 'NONE', #65 ) ;
#39 = DIRECTION ( 'NONE',  ( -3.491481338843133355E-15, 1.892635962318636551E-16, -1.000000000000000000 ) ) ;
#40 = PERSON_AND_ORGANIZATION_ROLE ( 'design_supplier' ) ;
#41 = LOCAL_TIME ( 13, 58, 25.00000000000000000, #140 ) ;
#42 = DATE_AND_TIME ( #23, #69 ) ;
#43 = APPROVAL ( #107, 'UNSPECIFIED' ) ;
#44 = EDGE_LOOP ( 'NONE', ( #126 ) ) ;
#45 = APPLICATION_CONTEXT ( 'configuration controlled 3d designs of mechanical parts and assemblies' ) ;
#46 = DATE_AND_TIME ( #165, #61 ) ;
#47 = PERSON_AND_ORGANIZATION_ROLE ( 'design_owner' ) ;
#48 = AXIS2_PLACEMENT_3D ( 'NONE', #117, #155, #102 ) ;
#49 = CYLINDRICAL_SURFACE ( 'NONE', #111, 25.00000000000000000 ) ;
#50 = CYLINDRICAL_SURFACE ( 'NONE', #57, 6.499999999999999112 ) ;
#51 =( LENGTH_UNIT ( ) NAMED_UNIT ( * ) SI_UNIT ( .MILLI., .METRE. ) );
#52 = VERTEX_POINT ( 'NONE', #106 ) ;
#53 = APPROVAL_ROLE ( '' ) ;
#54 = EDGE_LOOP ( 'NONE', ( #139 ) ) ;
#55 = DATE_AND_TIME ( #135, #41 ) ;
#56 = ORIENTED_EDGE ( 'NONE', *, *, #24, .T. ) ;
#57 = AXIS2_PLACEMENT_3D ( 'NONE', #20, #39, #66 ) ;
#58 = APPROVAL_ROLE ( '' ) ;
#59 = CC_DESIGN_DATE_AND_TIME_ASSIGNMENT ( #55, #14, ( #88 ) ) ;
#60 = DIRECTION ( 'NONE',  ( -6.608103143658934914E-31, -1.000000000000000000, -1.892635962318636551E-16 ) ) ;
#61 = LOCAL_TIME ( 13, 58, 25.00000000000000000, #113 ) ;
#62 = EDGE_LOOP ( 'NONE', ( #93 ) ) ;
#63 = FACE_OUTER_BOUND ( 'NONE', #149, .T. ) ;
#64 = EDGE_CURVE ( 'NONE', #120, #120, #90, .T. ) ;
#65 = CARTESIAN_POINT ( 'NONE',  ( 3.840629472727446691E-15, 25.00000000000000000, 1.100000000000000089 ) ) ;
#66 = DIRECTION ( 'NONE',  ( 6.608103143658934914E-31, 1.000000000000000000, 1.892635962318636551E-16 ) ) ;
#67 = APPROVAL_ROLE ( '' ) ;
#68 = PERSON_AND_ORGANIZATION ( #162, #70 ) ;
#69 = LOCAL_TIME ( 13, 58, 25.00000000000000000, #160 ) ;
#70 = ORGANIZATION ( 'UNSPECIFIED', 'UNSPECIFIED', '' ) ;
#71 = PERSON_AND_ORGANIZATION ( #162, #70 ) ;
#72 = APPLICATION_PROTOCOL_DEFINITION ( 'international standard', 'config_control_design', 1994, #101 ) ;
#73 = SHAPE_DEFINITION_REPRESENTATION ( #145, #108 ) ;
#74 = DIRECTION ( 'NONE',  ( 6.608103143658935789E-31, 1.000000000000000000, 1.892635962318636797E-16 ) ) ;
#75 = FACE_OUTER_BOUND ( 'NONE', #137, .T. ) ;
#76 = APPROVAL ( #138, 'UNSPECIFIED' ) ;
#77 = DIRECTION ( 'NONE',  ( -3.491481338843133355E-15, 1.892635962318636551E-16, -1.000000000000000000 ) ) ;
#78 = DIRECTION ( 'NONE',  ( 6.608103143658934914E-31, 1.000000000000000000, 1.892635962318636551E-16 ) ) ;
#79 = PERSON_AND_ORGANIZATION ( #162, #70 ) ;
#80 = CC_DESIGN_DATE_AND_TIME_ASSIGNMENT ( #42, #26, ( #82 ) ) ;
#81 = ORIENTED_EDGE ( 'NONE', *, *, #129, .T. ) ;
#82 = SECURITY_CLASSIFICATION ( '', '', #122 ) ;
#83 = PERSON_AND_ORGANIZATION ( #162, #70 ) ;
#84 = PERSON_AND_ORGANIZATION_ROLE ( 'creator' ) ;
#85 = CIRCLE ( 'NONE', #166, 25.00000000000000000 ) ;
#86 = DIRECTION ( 'NONE',  ( 6.471124613141112466E-31, 1.000000000000000000, 1.908195823574487804E-16 ) ) ;
#87 = CARTESIAN_POINT ( 'NONE',  ( 0.0000000000000000000, 0.0000000000000000000, 0.0000000000000000000 ) ) ;
#88 = PRODUCT_DEFINITION ( 'UNKNOWN', '', #159, #29 ) ;
#89 = FACE_OUTER_BOUND ( 'NONE', #148, .T. ) ;
#90 = CIRCLE ( 'NONE', #163, 6.499999999999999112 ) ;
#91 = CALENDAR_DATE ( 2021, 6, 12 ) ;
#92 = CALENDAR_DATE ( 2021, 6, 12 ) ;
#93 = ORIENTED_EDGE ( 'NONE', *, *, #64, .T. ) ;
#94 = APPROVAL_PERSON_ORGANIZATION ( #83, #76, #67 ) ;
#95 = AXIS2_PLACEMENT_3D ( 'NONE', #103, #131, #60 ) ;
#96 = UNCERTAINTY_MEASURE_WITH_UNIT (LENGTH_MEASURE( 1.000000000000000082E-05 ), #51, 'distance_accuracy_value', 'NONE');
#97 = DIRECTION ( 'NONE',  ( 0.0000000000000000000, 0.0000000000000000000, 1.000000000000000000 ) ) ;
#98 = PRODUCT ( '1663', '1663', '', ( #150 ) ) ;
#99 = PERSON_AND_ORGANIZATION ( #162, #70 ) ;
#100 =( GEOMETRIC_REPRESENTATION_CONTEXT ( 3 ) GLOBAL_UNCERTAINTY_ASSIGNED_CONTEXT ( ( #96 ) ) GLOBAL_UNIT_ASSIGNED_CONTEXT ( ( #51, #121, #2 ) ) REPRESENTATION_CONTEXT ( 'NONE', 'WORKASPACE' ) );
#101 = APPLICATION_CONTEXT ( 'configuration controlled 3d designs of mechanical parts and assemblies' ) ;
#102 = DIRECTION ( 'NONE',  ( 6.608103143658934914E-31, 1.000000000000000000, 1.892635962318636551E-16 ) ) ;
#103 = CARTESIAN_POINT ( 'NONE',  ( 3.840629472727441169E-15, 6.499999999999999112, 1.099999999999998312 ) ) ;
#104 = APPROVAL_PERSON_ORGANIZATION ( #68, #43, #53 ) ;
#105 = PLANE ( 'NONE',  #153 ) ;
#106 = CARTESIAN_POINT ( 'NONE',  ( 0.0000000000000000000, 6.500000000000000000, 0.0000000000000000000 ) ) ;
#107 = APPROVAL_STATUS ( 'not_yet_approved' ) ;
#108 = ADVANCED_BREP_SHAPE_REPRESENTATION ( '1663', ( #125, #21 ), #100 ) ;
#109 = PERSON_AND_ORGANIZATION ( #162, #70 ) ;
#110 = EDGE_CURVE ( 'NONE', #52, #52, #127, .T. ) ;
#111 = AXIS2_PLACEMENT_3D ( 'NONE', #87, #18, #74 ) ;
#112 = ORIENTED_EDGE ( 'NONE', *, *, #24, .F. ) ;
#113 = COORDINATED_UNIVERSAL_TIME_OFFSET ( 1, 0, .AHEAD. ) ;
#114 = DIRECTION ( 'NONE',  ( 1.000000000000000000, 0.0000000000000000000, 0.0000000000000000000 ) ) ;
#115 = PRODUCT_RELATED_PRODUCT_CATEGORY ( 'detail', '', ( #98 ) ) ;
#116 = CC_DESIGN_APPROVAL ( #169, ( #88 ) ) ;
#117 = CARTESIAN_POINT ( 'NONE',  ( -4.295267043378307869E-30, 2.328346075810164425E-31, -1.230213375507113820E-15 ) ) ;
#118 = FACE_BOUND ( 'NONE', #62, .T. ) ;
#119 = FACE_OUTER_BOUND ( 'NONE', #164, .T. ) ;
#120 = VERTEX_POINT ( 'NONE', #11 ) ;
#121 =( NAMED_UNIT ( * ) PLANE_ANGLE_UNIT ( ) SI_UNIT ( $, .RADIAN. ) );
#122 = SECURITY_CLASSIFICATION_LEVEL ( 'unclassified' ) ;
#123 = PERSON_AND_ORGANIZATION_ROLE ( 'creator' ) ;
#124 = CC_DESIGN_PERSON_AND_ORGANIZATION_ASSIGNMENT ( #99, #84, ( #88 ) ) ;
#125 = MANIFOLD_SOLID_BREP ( 'Corps-Déplacer/Copier1', #28 ) ;
#126 = ORIENTED_EDGE ( 'NONE', *, *, #129, .F. ) ;
#127 = CIRCLE ( 'NONE', #48, 6.500000000000000000 ) ;
#128 = APPROVAL_STATUS ( 'not_yet_approved' ) ;
#129 = EDGE_CURVE ( 'NONE', #133, #133, #33, .T. ) ;
#130 = APPROVAL_DATE_TIME ( #146, #76 ) ;
#131 = DIRECTION ( 'NONE',  ( 3.491481338843133355E-15, -1.892635962318636551E-16, 1.000000000000000000 ) ) ;
#132 = FACE_OUTER_BOUND ( 'NONE', #54, .T. ) ;
#133 = VERTEX_POINT ( 'NONE', #22 ) ;
#134 = COORDINATED_UNIVERSAL_TIME_OFFSET ( 1, 0, .AHEAD. ) ;
#135 = CALENDAR_DATE ( 2021, 6, 12 ) ;
#136 = CC_DESIGN_SECURITY_CLASSIFICATION ( #82, ( #159 ) ) ;
#137 = EDGE_LOOP ( 'NONE', ( #6 ) ) ;
#138 = APPROVAL_STATUS ( 'not_yet_approved' ) ;
#139 = ORIENTED_EDGE ( 'NONE', *, *, #64, .F. ) ;
#140 = COORDINATED_UNIVERSAL_TIME_OFFSET ( 1, 0, .AHEAD. ) ;
#141 = ADVANCED_FACE ( 'NONE', ( #119, #168 ), #49, .T. ) ;
#142 = DIRECTION ( 'NONE',  ( 7.111125948506718006E-31, 1.000000000000000000, 2.001604010742470009E-16 ) ) ;
#143 = CARTESIAN_POINT ( 'NONE',  ( 3.840629472727442747E-15, -2.081899558550498061E-16, 1.099999999999998757 ) ) ;
#144 = CC_DESIGN_PERSON_AND_ORGANIZATION_ASSIGNMENT ( #79, #123, ( #159 ) ) ;
#145 = PRODUCT_DEFINITION_SHAPE ( 'NONE', 'NONE',  #88 ) ;
#146 = DATE_AND_TIME ( #91, #19 ) ;
#147 = APPROVAL_DATE_TIME ( #13, #43 ) ;
#148 = EDGE_LOOP ( 'NONE', ( #81 ) ) ;
#149 = EDGE_LOOP ( 'NONE', ( #112 ) ) ;
#150 = MECHANICAL_CONTEXT ( 'NONE', #101, 'mechanical' ) ;
#151 = APPROVAL_DATE_TIME ( #46, #169 ) ;
#152 = ADVANCED_FACE ( 'NONE', ( #75, #132 ), #50, .F. ) ;
#153 = AXIS2_PLACEMENT_3D ( 'NONE', #157, #77, #78 ) ;
#154 = CARTESIAN_POINT ( 'NONE',  ( 3.840629472727430125E-15, -2.081899558550491158E-16, 1.099999999999995204 ) ) ;
#155 = DIRECTION ( 'NONE',  ( -3.491481338843133355E-15, 1.892635962318636551E-16, -1.000000000000000000 ) ) ;
#156 = ADVANCED_FACE ( 'NONE', ( #89, #1 ), #105, .T. ) ;
#157 = CARTESIAN_POINT ( 'NONE',  ( -6.112495407884515583E-30, 6.500000000000000000, -1.750688265144738988E-15 ) ) ;
#158 = COORDINATED_UNIVERSAL_TIME_OFFSET ( 1, 0, .AHEAD. ) ;
#159 = PRODUCT_DEFINITION_FORMATION_WITH_SPECIFIED_SOURCE ( 'ANY', '', #98, .NOT_KNOWN. ) ;
#160 = COORDINATED_UNIVERSAL_TIME_OFFSET ( 1, 0, .AHEAD. ) ;
#161 = ORIENTED_EDGE ( 'NONE', *, *, #110, .F. ) ;
#162 = PERSON ( 'UNSPECIFIED', 'UNSPECIFIED', 'UNSPECIFIED', ('UNSPECIFIED'), ('UNSPECIFIED'), ('UNSPECIFIED') ) ;
#163 = AXIS2_PLACEMENT_3D ( 'NONE', #143, #34, #142 ) ;
#164 = EDGE_LOOP ( 'NONE', ( #56 ) ) ;
#165 = CALENDAR_DATE ( 2021, 6, 12 ) ;
#166 = AXIS2_PLACEMENT_3D ( 'NONE', #154, #9, #86 ) ;
#167 = DIRECTION ( 'NONE',  ( 6.608103143658935789E-31, 1.000000000000000000, 1.892635962318636797E-16 ) ) ;
#168 = FACE_OUTER_BOUND ( 'NONE', #44, .T. ) ;
#169 = APPROVAL ( #128, 'UNSPECIFIED' ) ;
ENDSEC;
END-ISO-10303-21;
