ISO-10303-21;
HEADER;
FILE_DESCRIPTION (( 'STEP AP203' ),
    '1' );
FILE_NAME ('1660.step',
    '2021-12-06T12:58:24',
    ( '' ),
    ( '' ),
    'SwSTEP 2.0',
    'SolidWorks 2019',
    '' );
FILE_SCHEMA (( 'CONFIG_CONTROL_DESIGN' ));
ENDSEC;

DATA;
#1 = ADVANCED_FACE ( 'NONE', ( #121, #18 ), #106, .T. ) ;
#2 = DIRECTION ( 'NONE',  ( 3.635192770030907673E-30, 1.000000000000000000, 1.043544591017298018E-15 ) ) ;
#3 = DATE_AND_TIME ( #81, #65 ) ;
#4 = PERSON_AND_ORGANIZATION ( #139, #62 ) ;
#5 = EDGE_LOOP ( 'NONE', ( #164 ) ) ;
#6 = PERSON_AND_ORGANIZATION_ROLE ( 'classification_officer' ) ;
#7 = CARTESIAN_POINT ( 'NONE',  ( 0.0000000000000000000, 0.0000000000000000000, 0.0000000000000000000 ) ) ;
#8 = EDGE_LOOP ( 'NONE', ( #161 ) ) ;
#9 = CC_DESIGN_APPROVAL ( #57, ( #86 ) ) ;
#10 = CC_DESIGN_DATE_AND_TIME_ASSIGNMENT ( #83, #34, ( #86 ) ) ;
#11 = CARTESIAN_POINT ( 'NONE',  ( 6.982962677686266711E-16, 12.50000000000000000, 0.1999999999999999833 ) ) ;
#12 = FACE_OUTER_BOUND ( 'NONE', #137, .T. ) ;
#13 = PERSON_AND_ORGANIZATION_ROLE ( 'creator' ) ;
#14 = AXIS2_PLACEMENT_3D ( 'NONE', #7, #84, #71 ) ;
#15 = PERSON_AND_ORGANIZATION_ROLE ( 'creator' ) ;
#16 = EDGE_LOOP ( 'NONE', ( #85 ) ) ;
#17 = PERSON_AND_ORGANIZATION ( #139, #62 ) ;
#18 = FACE_BOUND ( 'NONE', #52, .T. ) ;
#19 = ADVANCED_BREP_SHAPE_REPRESENTATION ( '1660', ( #125, #58 ), #111 ) ;
#20 = EDGE_LOOP ( 'NONE', ( #36 ) ) ;
#21 = AXIS2_PLACEMENT_3D ( 'NONE', #25, #169, #129 ) ;
#22 = LOCAL_TIME ( 13, 58, 24.00000000000000000, #94 ) ;
#23 = CARTESIAN_POINT ( 'NONE',  ( 0.0000000000000000000, 0.0000000000000000000, 0.0000000000000000000 ) ) ;
#24 = CARTESIAN_POINT ( 'NONE',  ( 6.982962677686264738E-16, 4.000000000000000000, 0.1999999999999999556 ) ) ;
#25 = CARTESIAN_POINT ( 'NONE',  ( -4.543070911265519426E-29, 1.354470553716490388E-29, -1.301187224094063000E-14 ) ) ;
#26 = CARTESIAN_POINT ( 'NONE',  ( 0.0000000000000000000, 12.50000000000000000, 0.0000000000000000000 ) ) ;
#27 = PLANE ( 'NONE',  #88 ) ;
#28 = APPROVAL_ROLE ( '' ) ;
#29 = PERSON_AND_ORGANIZATION ( #139, #62 ) ;
#30 = PRODUCT_DEFINITION_FORMATION_WITH_SPECIFIED_SOURCE ( 'ANY', '', #133, .NOT_KNOWN. ) ;
#31 = PERSON_AND_ORGANIZATION ( #139, #62 ) ;
#32 = PERSON_AND_ORGANIZATION ( #139, #62 ) ;
#33 = AXIS2_PLACEMENT_3D ( 'NONE', #108, #97, #166 ) ;
#34 = DATE_TIME_ROLE ( 'classification_date' ) ;
#35 = FACE_OUTER_BOUND ( 'NONE', #20, .T. ) ;
#36 = ORIENTED_EDGE ( 'NONE', *, *, #154, .F. ) ;
#37 =( LENGTH_UNIT ( ) NAMED_UNIT ( * ) SI_UNIT ( .MILLI., .METRE. ) );
#38 = CIRCLE ( 'NONE', #168, 4.000000000000000000 ) ;
#39 = CC_DESIGN_PERSON_AND_ORGANIZATION_ASSIGNMENT ( #130, #15, ( #30 ) ) ;
#40 = FACE_BOUND ( 'NONE', #96, .T. ) ;
#41 = CYLINDRICAL_SURFACE ( 'NONE', #73, 12.50000000000000000 ) ;
#42 = APPROVAL ( #69, 'UNSPECIFIED' ) ;
#43 = COORDINATED_UNIVERSAL_TIME_OFFSET ( 1, 0, .AHEAD. ) ;
#44 = APPLICATION_PROTOCOL_DEFINITION ( 'international standard', 'config_control_design', 1994, #99 ) ;
#45 = ORIENTED_EDGE ( 'NONE', *, *, #154, .T. ) ;
#46 = PRODUCT_DEFINITION ( 'UNKNOWN', '', #30, #100 ) ;
#47 = CALENDAR_DATE ( 2021, 6, 12 ) ;
#48 = APPROVAL_ROLE ( '' ) ;
#49 = ORIENTED_EDGE ( 'NONE', *, *, #124, .F. ) ;
#50 = CLOSED_SHELL ( 'NONE', ( #1, #127, #148, #54 ) ) ;
#51 = PRODUCT_RELATED_PRODUCT_CATEGORY ( 'detail', '', ( #133 ) ) ;
#52 = EDGE_LOOP ( 'NONE', ( #134 ) ) ;
#53 = AXIS2_PLACEMENT_3D ( 'NONE', #72, #123, #152 ) ;
#54 = ADVANCED_FACE ( 'NONE', ( #119, #35 ), #136, .F. ) ;
#55 = CARTESIAN_POINT ( 'NONE',  ( -1.453782691604966171E-29, 4.334305771892769691E-30, -4.163799117101001348E-15 ) ) ;
#56 = FACE_OUTER_BOUND ( 'NONE', #5, .T. ) ;
#57 = APPROVAL ( #120, 'UNSPECIFIED' ) ;
#58 = AXIS2_PLACEMENT_3D ( 'NONE', #23, #140, #76 ) ;
#59 = COORDINATED_UNIVERSAL_TIME_OFFSET ( 1, 0, .AHEAD. ) ;
#60 = PERSON_AND_ORGANIZATION_ROLE ( 'design_supplier' ) ;
#61 = EDGE_LOOP ( 'NONE', ( #153 ) ) ;
#62 = ORGANIZATION ( 'UNSPECIFIED', 'UNSPECIFIED', '' ) ;
#63 = MECHANICAL_CONTEXT ( 'NONE', #143, 'mechanical' ) ;
#64 = VERTEX_POINT ( 'NONE', #24 ) ;
#65 = LOCAL_TIME ( 13, 58, 24.00000000000000000, #105 ) ;
#66 = VERTEX_POINT ( 'NONE', #112 ) ;
#67 = DIRECTION ( 'NONE',  ( -3.634456729012415429E-30, -1.000000000000000000, -1.040949779275250337E-15 ) ) ;
#68 = CC_DESIGN_APPROVAL ( #151, ( #30 ) ) ;
#69 = APPROVAL_STATUS ( 'not_yet_approved' ) ;
#70 = PERSON_AND_ORGANIZATION ( #139, #62 ) ;
#71 = DIRECTION ( 'NONE',  ( 3.634456729012415429E-30, 1.000000000000000000, 1.040949779275250337E-15 ) ) ;
#72 = CARTESIAN_POINT ( 'NONE',  ( -1.544644109830276627E-29, 4.000000000000000000, -4.424036561919814327E-15 ) ) ;
#73 = AXIS2_PLACEMENT_3D ( 'NONE', #78, #158, #157 ) ;
#74 = LOCAL_TIME ( 13, 58, 24.00000000000000000, #59 ) ;
#75 = CC_DESIGN_PERSON_AND_ORGANIZATION_ASSIGNMENT ( #32, #6, ( #86 ) ) ;
#76 = DIRECTION ( 'NONE',  ( 1.000000000000000000, 0.0000000000000000000, 0.0000000000000000000 ) ) ;
#77 = FACE_OUTER_BOUND ( 'NONE', #8, .T. ) ;
#78 = CARTESIAN_POINT ( 'NONE',  ( 0.0000000000000000000, 0.0000000000000000000, 0.0000000000000000000 ) ) ;
#79 = APPROVAL_DATE_TIME ( #93, #151 ) ;
#80 = LOCAL_TIME ( 13, 58, 24.00000000000000000, #43 ) ;
#81 = CALENDAR_DATE ( 2021, 6, 12 ) ;
#82 = CC_DESIGN_DATE_AND_TIME_ASSIGNMENT ( #159, #160, ( #46 ) ) ;
#83 = DATE_AND_TIME ( #163, #150 ) ;
#84 = DIRECTION ( 'NONE',  ( -3.491481338843133355E-15, 1.040949779275250337E-15, -1.000000000000000000 ) ) ;
#85 = ORIENTED_EDGE ( 'NONE', *, *, #122, .T. ) ;
#86 = SECURITY_CLASSIFICATION ( '', '', #117 ) ;
#87 = UNCERTAINTY_MEASURE_WITH_UNIT (LENGTH_MEASURE( 1.000000000000000082E-05 ), #37, 'distance_accuracy_value', 'NONE');
#88 = AXIS2_PLACEMENT_3D ( 'NONE', #89, #91, #67 ) ;
#89 = CARTESIAN_POINT ( 'NONE',  ( 6.982962677686111897E-16, 4.000000000000000000, 0.1999999999999955702 ) ) ;
#90 = CC_DESIGN_PERSON_AND_ORGANIZATION_ASSIGNMENT ( #29, #13, ( #46 ) ) ;
#91 = DIRECTION ( 'NONE',  ( 3.491481338843133355E-15, -1.040949779275250337E-15, 1.000000000000000000 ) ) ;
#92 = APPROVAL_STATUS ( 'not_yet_approved' ) ;
#93 = DATE_AND_TIME ( #145, #80 ) ;
#94 = COORDINATED_UNIVERSAL_TIME_OFFSET ( 1, 0, .AHEAD. ) ;
#95 = APPROVAL_DATE_TIME ( #149, #57 ) ;
#96 = EDGE_LOOP ( 'NONE', ( #45 ) ) ;
#97 = DIRECTION ( 'NONE',  ( -3.491481338843133355E-15, 1.040949779275250337E-15, -1.000000000000000000 ) ) ;
#98 = CC_DESIGN_PERSON_AND_ORGANIZATION_ASSIGNMENT ( #156, #147, ( #133 ) ) ;
#99 = APPLICATION_CONTEXT ( 'configuration controlled 3d designs of mechanical parts and assemblies' ) ;
#100 = DESIGN_CONTEXT ( 'detailed design', #99, 'design' ) ;
#101 = CC_DESIGN_SECURITY_CLASSIFICATION ( #86, ( #30 ) ) ;
#102 = DIRECTION ( 'NONE',  ( 3.634456729012415429E-30, 1.000000000000000000, 1.040949779275250337E-15 ) ) ;
#103 = DIRECTION ( 'NONE',  ( -3.491481338843133355E-15, 1.040949779275250337E-15, -1.000000000000000000 ) ) ;
#104 = CALENDAR_DATE ( 2021, 6, 12 ) ;
#105 = COORDINATED_UNIVERSAL_TIME_OFFSET ( 1, 0, .AHEAD. ) ;
#106 = PLANE ( 'NONE',  #53 ) ;
#107 = CIRCLE ( 'NONE', #33, 12.50000000000000000 ) ;
#108 = CARTESIAN_POINT ( 'NONE',  ( 6.982962677685812129E-16, -2.081899558550365187E-16, 0.1999999999999869660 ) ) ;
#109 = EDGE_CURVE ( 'NONE', #128, #128, #107, .T. ) ;
#110 =( NAMED_UNIT ( * ) PLANE_ANGLE_UNIT ( ) SI_UNIT ( $, .RADIAN. ) );
#111 =( GEOMETRIC_REPRESENTATION_CONTEXT ( 3 ) GLOBAL_UNCERTAINTY_ASSIGNED_CONTEXT ( ( #87 ) ) GLOBAL_UNIT_ASSIGNED_CONTEXT ( ( #37, #110, #167 ) ) REPRESENTATION_CONTEXT ( 'NONE', 'WORKASPACE' ) );
#112 = CARTESIAN_POINT ( 'NONE',  ( 0.0000000000000000000, 4.000000000000000000, 0.0000000000000000000 ) ) ;
#113 = DIRECTION ( 'NONE',  ( -3.491481338843133355E-15, 1.040949779275250337E-15, -1.000000000000000000 ) ) ;
#114 = CC_DESIGN_PERSON_AND_ORGANIZATION_ASSIGNMENT ( #70, #60, ( #30 ) ) ;
#115 = APPROVAL_ROLE ( '' ) ;
#116 = PRODUCT_DEFINITION_SHAPE ( 'NONE', 'NONE',  #46 ) ;
#117 = SECURITY_CLASSIFICATION_LEVEL ( 'unclassified' ) ;
#118 = SHAPE_DEFINITION_REPRESENTATION ( #116, #19 ) ;
#119 = FACE_OUTER_BOUND ( 'NONE', #16, .T. ) ;
#120 = APPROVAL_STATUS ( 'not_yet_approved' ) ;
#121 = FACE_OUTER_BOUND ( 'NONE', #61, .T. ) ;
#122 = EDGE_CURVE ( 'NONE', #66, #66, #146, .T. ) ;
#123 = DIRECTION ( 'NONE',  ( -3.491481338843133355E-15, 1.040949779275250337E-15, -1.000000000000000000 ) ) ;
#124 = EDGE_CURVE ( 'NONE', #142, #142, #162, .T. ) ;
#125 = MANIFOLD_SOLID_BREP ( 'Corps-Déplacer/Copier1', #50 ) ;
#126 = APPROVAL_PERSON_ORGANIZATION ( #17, #57, #48 ) ;
#127 = ADVANCED_FACE ( 'NONE', ( #77, #12 ), #41, .T. ) ;
#128 = VERTEX_POINT ( 'NONE', #11 ) ;
#129 = DIRECTION ( 'NONE',  ( 3.634456729012415429E-30, 1.000000000000000000, 1.040949779275250337E-15 ) ) ;
#130 = PERSON_AND_ORGANIZATION ( #139, #62 ) ;
#131 = AXIS2_PLACEMENT_3D ( 'NONE', #55, #103, #102 ) ;
#132 = APPROVAL_DATE_TIME ( #3, #42 ) ;
#133 = PRODUCT ( '1660', '1660', '', ( #63 ) ) ;
#134 = ORIENTED_EDGE ( 'NONE', *, *, #122, .F. ) ;
#135 = COORDINATED_UNIVERSAL_TIME_OFFSET ( 1, 0, .AHEAD. ) ;
#136 = CYLINDRICAL_SURFACE ( 'NONE', #14, 4.000000000000000000 ) ;
#137 = EDGE_LOOP ( 'NONE', ( #49 ) ) ;
#138 = APPROVAL_PERSON_ORGANIZATION ( #4, #151, #28 ) ;
#139 = PERSON ( 'UNSPECIFIED', 'UNSPECIFIED', 'UNSPECIFIED', ('UNSPECIFIED'), ('UNSPECIFIED'), ('UNSPECIFIED') ) ;
#140 = DIRECTION ( 'NONE',  ( 0.0000000000000000000, 0.0000000000000000000, 1.000000000000000000 ) ) ;
#141 = APPLICATION_PROTOCOL_DEFINITION ( 'international standard', 'config_control_design', 1994, #143 ) ;
#142 = VERTEX_POINT ( 'NONE', #26 ) ;
#143 = APPLICATION_CONTEXT ( 'configuration controlled 3d designs of mechanical parts and assemblies' ) ;
#144 = CARTESIAN_POINT ( 'NONE',  ( 6.982962677686118799E-16, -2.081899558550456892E-16, 0.1999999999999957923 ) ) ;
#145 = CALENDAR_DATE ( 2021, 6, 12 ) ;
#146 = CIRCLE ( 'NONE', #131, 4.000000000000000000 ) ;
#147 = PERSON_AND_ORGANIZATION_ROLE ( 'design_owner' ) ;
#148 = ADVANCED_FACE ( 'NONE', ( #40, #56 ), #27, .T. ) ;
#149 = DATE_AND_TIME ( #47, #22 ) ;
#150 = LOCAL_TIME ( 13, 58, 24.00000000000000000, #135 ) ;
#151 = APPROVAL ( #92, 'UNSPECIFIED' ) ;
#152 = DIRECTION ( 'NONE',  ( 3.634456729012415429E-30, 1.000000000000000000, 1.040949779275250337E-15 ) ) ;
#153 = ORIENTED_EDGE ( 'NONE', *, *, #124, .T. ) ;
#154 = EDGE_CURVE ( 'NONE', #64, #64, #38, .T. ) ;
#155 = CC_DESIGN_APPROVAL ( #42, ( #46 ) ) ;
#156 = PERSON_AND_ORGANIZATION ( #139, #62 ) ;
#157 = DIRECTION ( 'NONE',  ( 3.634456729012415429E-30, 1.000000000000000000, 1.040949779275250337E-15 ) ) ;
#158 = DIRECTION ( 'NONE',  ( -3.491481338843133355E-15, 1.040949779275250337E-15, -1.000000000000000000 ) ) ;
#159 = DATE_AND_TIME ( #104, #74 ) ;
#160 = DATE_TIME_ROLE ( 'creation_date' ) ;
#161 = ORIENTED_EDGE ( 'NONE', *, *, #109, .T. ) ;
#162 = CIRCLE ( 'NONE', #21, 12.50000000000000000 ) ;
#163 = CALENDAR_DATE ( 2021, 6, 12 ) ;
#164 = ORIENTED_EDGE ( 'NONE', *, *, #109, .F. ) ;
#165 = APPROVAL_PERSON_ORGANIZATION ( #31, #42, #115 ) ;
#166 = DIRECTION ( 'NONE',  ( 3.636155735003101291E-30, 1.000000000000000000, 1.040834085586084257E-15 ) ) ;
#167 =( NAMED_UNIT ( * ) SI_UNIT ( $, .STERADIAN. ) SOLID_ANGLE_UNIT ( ) );
#168 = AXIS2_PLACEMENT_3D ( 'NONE', #144, #113, #2 ) ;
#169 = DIRECTION ( 'NONE',  ( -3.491481338843133355E-15, 1.040949779275250337E-15, -1.000000000000000000 ) ) ;
ENDSEC;
END-ISO-10303-21;
