ISO-10303-21;
HEADER;
FILE_DESCRIPTION (( 'STEP AP203' ),
    '1' );
FILE_NAME ('1659.step',
    '2021-12-06T12:58:24',
    ( '' ),
    ( '' ),
    'SwSTEP 2.0',
    'SolidWorks 2019',
    '' );
FILE_SCHEMA (( 'CONFIG_CONTROL_DESIGN' ));
ENDSEC;

DATA;
#1 = CC_DESIGN_APPROVAL ( #126, ( #140 ) ) ;
#2 = APPLICATION_CONTEXT ( 'configuration controlled 3d designs of mechanical parts and assemblies' ) ;
#3 = DATE_AND_TIME ( #38, #83 ) ;
#4 = DIRECTION ( 'NONE',  ( 3.491481338843133355E-15, -5.204748896376249713E-16, 1.000000000000000000 ) ) ;
#5 = DESIGN_CONTEXT ( 'detailed design', #17, 'design' ) ;
#6 = APPROVAL ( #118, 'UNSPECIFIED' ) ;
#7 = FACE_BOUND ( 'NONE', #95, .T. ) ;
#8 = LOCAL_TIME ( 13, 58, 24.00000000000000000, #21 ) ;
#9 = CARTESIAN_POINT ( 'NONE',  ( -4.543070911265517184E-30, 6.772352768582447387E-31, -1.301187224094062330E-15 ) ) ;
#10 = ORIENTED_EDGE ( 'NONE', *, *, #162, .T. ) ;
#11 = EDGE_CURVE ( 'NONE', #142, #142, #85, .T. ) ;
#12 = DIRECTION ( 'NONE',  ( 1.848892746611746069E-30, 1.000000000000000000, 5.204170427930420297E-16 ) ) ;
#13 = CIRCLE ( 'NONE', #119, 2.500000000000000444 ) ;
#14 = CARTESIAN_POINT ( 'NONE',  ( -1.817228364506206874E-29, 2.708941107432978955E-30, -5.204748896376249319E-15 ) ) ;
#15 = COORDINATED_UNIVERSAL_TIME_OFFSET ( 1, 0, .AHEAD. ) ;
#16 = APPROVAL_PERSON_ORGANIZATION ( #109, #6, #138 ) ;
#17 = APPLICATION_CONTEXT ( 'configuration controlled 3d designs of mechanical parts and assemblies' ) ;
#18 = PERSON_AND_ORGANIZATION ( #87, #90 ) ;
#19 = ADVANCED_BREP_SHAPE_REPRESENTATION ( '1659', ( #134, #75 ), #107 ) ;
#20 = DATE_AND_TIME ( #71, #8 ) ;
#21 = COORDINATED_UNIVERSAL_TIME_OFFSET ( 1, 0, .AHEAD. ) ;
#22 = DATE_AND_TIME ( #41, #34 ) ;
#23 = CC_DESIGN_PERSON_AND_ORGANIZATION_ASSIGNMENT ( #88, #72, ( #163 ) ) ;
#24 = DIRECTION ( 'NONE',  ( 1.817228364506207014E-30, 1.000000000000000000, 5.204748896376249713E-16 ) ) ;
#25 = CARTESIAN_POINT ( 'NONE',  ( 0.0000000000000000000, 10.00000000000000000, 0.0000000000000000000 ) ) ;
#26 = EDGE_LOOP ( 'NONE', ( #79 ) ) ;
#27 = VERTEX_POINT ( 'NONE', #77 ) ;
#28 = ORIENTED_EDGE ( 'NONE', *, *, #53, .F. ) ;
#29 = UNCERTAINTY_MEASURE_WITH_UNIT (LENGTH_MEASURE( 1.000000000000000082E-05 ), #42, 'distance_accuracy_value', 'NONE');
#30 = EDGE_LOOP ( 'NONE', ( #28 ) ) ;
#31 = AXIS2_PLACEMENT_3D ( 'NONE', #9, #91, #61 ) ;
#32 = ORIENTED_EDGE ( 'NONE', *, *, #137, .F. ) ;
#33 = CC_DESIGN_PERSON_AND_ORGANIZATION_ASSIGNMENT ( #73, #129, ( #163 ) ) ;
#34 = LOCAL_TIME ( 13, 58, 24.00000000000000000, #15 ) ;
#35 = EDGE_LOOP ( 'NONE', ( #51 ) ) ;
#36 = DATE_TIME_ROLE ( 'creation_date' ) ;
#37 = APPROVAL_STATUS ( 'not_yet_approved' ) ;
#38 = CALENDAR_DATE ( 2021, 6, 12 ) ;
#39 = CYLINDRICAL_SURFACE ( 'NONE', #154, 2.500000000000000444 ) ;
#40 = FACE_OUTER_BOUND ( 'NONE', #165, .T. ) ;
#41 = CALENDAR_DATE ( 2021, 6, 12 ) ;
#42 =( LENGTH_UNIT ( ) NAMED_UNIT ( * ) SI_UNIT ( .MILLI., .METRE. ) );
#43 = APPROVAL_ROLE ( '' ) ;
#44 = DATE_TIME_ROLE ( 'classification_date' ) ;
#45 = AXIS2_PLACEMENT_3D ( 'NONE', #144, #4, #62 ) ;
#46 = CALENDAR_DATE ( 2021, 6, 12 ) ;
#47 = SECURITY_CLASSIFICATION ( '', '', #152 ) ;
#48 = PLANE ( 'NONE',  #67 ) ;
#49 = FACE_OUTER_BOUND ( 'NONE', #30, .T. ) ;
#50 = DIRECTION ( 'NONE',  ( 1.817228364506207014E-30, 1.000000000000000000, 5.204748896376249713E-16 ) ) ;
#51 = ORIENTED_EDGE ( 'NONE', *, *, #53, .T. ) ;
#52 = FACE_BOUND ( 'NONE', #35, .T. ) ;
#53 = EDGE_CURVE ( 'NONE', #76, #76, #13, .T. ) ;
#54 = CIRCLE ( 'NONE', #59, 10.00000000000000000 ) ;
#55 = APPROVAL_DATE_TIME ( #117, #126 ) ;
#56 = AXIS2_PLACEMENT_3D ( 'NONE', #63, #131, #24 ) ;
#57 = APPLICATION_PROTOCOL_DEFINITION ( 'international standard', 'config_control_design', 1994, #17 ) ;
#58 = APPROVAL_ROLE ( '' ) ;
#59 = AXIS2_PLACEMENT_3D ( 'NONE', #151, #94, #111 ) ;
#60 = COORDINATED_UNIVERSAL_TIME_OFFSET ( 1, 0, .AHEAD. ) ;
#61 = DIRECTION ( 'NONE',  ( 1.817228364506207014E-30, 1.000000000000000000, 5.204748896376249713E-16 ) ) ;
#62 = DIRECTION ( 'NONE',  ( -1.817228364506207014E-30, -1.000000000000000000, -5.204748896376249713E-16 ) ) ;
#63 = CARTESIAN_POINT ( 'NONE',  ( 0.0000000000000000000, 0.0000000000000000000, 0.0000000000000000000 ) ) ;
#64 = CARTESIAN_POINT ( 'NONE',  ( 1.396592535537253737E-15, 2.500000000000000444, 0.4000000000000000777 ) ) ;
#65 = CLOSED_SHELL ( 'NONE', ( #160, #147, #114, #124 ) ) ;
#66 = CARTESIAN_POINT ( 'NONE',  ( 1.396592535537253342E-15, 10.00000000000000000, 0.4000000000000000222 ) ) ;
#67 = AXIS2_PLACEMENT_3D ( 'NONE', #121, #164, #50 ) ;
#68 = PERSON_AND_ORGANIZATION_ROLE ( 'design_owner' ) ;
#69 = DIRECTION ( 'NONE',  ( 0.0000000000000000000, 0.0000000000000000000, 1.000000000000000000 ) ) ;
#70 = CC_DESIGN_DATE_AND_TIME_ASSIGNMENT ( #22, #36, ( #140 ) ) ;
#71 = CALENDAR_DATE ( 2021, 6, 12 ) ;
#72 = PERSON_AND_ORGANIZATION_ROLE ( 'creator' ) ;
#73 = PERSON_AND_ORGANIZATION ( #87, #90 ) ;
#74 = CYLINDRICAL_SURFACE ( 'NONE', #56, 10.00000000000000000 ) ;
#75 = AXIS2_PLACEMENT_3D ( 'NONE', #149, #69, #102 ) ;
#76 = VERTEX_POINT ( 'NONE', #64 ) ;
#77 = CARTESIAN_POINT ( 'NONE',  ( 0.0000000000000000000, 2.500000000000000000, 0.0000000000000000000 ) ) ;
#78 = DIRECTION ( 'NONE',  ( -3.491481338843133355E-15, 5.204748896376249713E-16, -1.000000000000000000 ) ) ;
#79 = ORIENTED_EDGE ( 'NONE', *, *, #137, .T. ) ;
#80 = AXIS2_PLACEMENT_3D ( 'NONE', #14, #167, #97 ) ;
#81 = PERSON_AND_ORGANIZATION ( #87, #90 ) ;
#82 = PRODUCT_RELATED_PRODUCT_CATEGORY ( 'detail', '', ( #108 ) ) ;
#83 = LOCAL_TIME ( 13, 58, 24.00000000000000000, #60 ) ;
#84 =( NAMED_UNIT ( * ) PLANE_ANGLE_UNIT ( ) SI_UNIT ( $, .RADIAN. ) );
#85 = CIRCLE ( 'NONE', #80, 10.00000000000000000 ) ;
#86 = COORDINATED_UNIVERSAL_TIME_OFFSET ( 1, 0, .AHEAD. ) ;
#87 = PERSON ( 'UNSPECIFIED', 'UNSPECIFIED', 'UNSPECIFIED', ('UNSPECIFIED'), ('UNSPECIFIED'), ('UNSPECIFIED') ) ;
#88 = PERSON_AND_ORGANIZATION ( #87, #90 ) ;
#89 = DATE_AND_TIME ( #105, #127 ) ;
#90 = ORGANIZATION ( 'UNSPECIFIED', 'UNSPECIFIED', '' ) ;
#91 = DIRECTION ( 'NONE',  ( -3.491481338843133355E-15, 5.204748896376249713E-16, -1.000000000000000000 ) ) ;
#92 = CC_DESIGN_PERSON_AND_ORGANIZATION_ASSIGNMENT ( #106, #150, ( #47 ) ) ;
#93 = DIRECTION ( 'NONE',  ( 1.817228364506206663E-30, 1.000000000000000000, 5.204748896376248727E-16 ) ) ;
#94 = DIRECTION ( 'NONE',  ( -3.491481338843133355E-15, 5.204748896376249713E-16, -1.000000000000000000 ) ) ;
#95 = EDGE_LOOP ( 'NONE', ( #32 ) ) ;
#96 = LOCAL_TIME ( 13, 58, 24.00000000000000000, #86 ) ;
#97 = DIRECTION ( 'NONE',  ( 1.817228364506207014E-30, 1.000000000000000000, 5.204748896376249713E-16 ) ) ;
#98 = FACE_OUTER_BOUND ( 'NONE', #122, .T. ) ;
#99 = CC_DESIGN_APPROVAL ( #6, ( #163 ) ) ;
#100 = CIRCLE ( 'NONE', #31, 2.500000000000000000 ) ;
#101 =( NAMED_UNIT ( * ) SI_UNIT ( $, .STERADIAN. ) SOLID_ANGLE_UNIT ( ) );
#102 = DIRECTION ( 'NONE',  ( 1.000000000000000000, 0.0000000000000000000, 0.0000000000000000000 ) ) ;
#103 = APPROVAL_DATE_TIME ( #20, #139 ) ;
#104 = MECHANICAL_CONTEXT ( 'NONE', #2, 'mechanical' ) ;
#105 = CALENDAR_DATE ( 2021, 6, 12 ) ;
#106 = PERSON_AND_ORGANIZATION ( #87, #90 ) ;
#107 =( GEOMETRIC_REPRESENTATION_CONTEXT ( 3 ) GLOBAL_UNCERTAINTY_ASSIGNED_CONTEXT ( ( #29 ) ) GLOBAL_UNIT_ASSIGNED_CONTEXT ( ( #42, #84, #101 ) ) REPRESENTATION_CONTEXT ( 'NONE', 'WORKASPACE' ) );
#108 = PRODUCT ( '1659', '1659', '', ( #104 ) ) ;
#109 = PERSON_AND_ORGANIZATION ( #87, #90 ) ;
#110 = DIRECTION ( 'NONE',  ( -3.491481338843133355E-15, 5.204748896376249713E-16, -1.000000000000000000 ) ) ;
#111 = DIRECTION ( 'NONE',  ( 1.810374147724001702E-30, 1.000000000000000000, 5.204170427930421283E-16 ) ) ;
#112 = PLANE ( 'NONE',  #45 ) ;
#113 = PERSON_AND_ORGANIZATION ( #87, #90 ) ;
#114 = ADVANCED_FACE ( 'NONE', ( #52, #98 ), #112, .T. ) ;
#115 = APPROVAL_STATUS ( 'not_yet_approved' ) ;
#116 = COORDINATED_UNIVERSAL_TIME_OFFSET ( 1, 0, .AHEAD. ) ;
#117 = DATE_AND_TIME ( #46, #96 ) ;
#118 = APPROVAL_STATUS ( 'not_yet_approved' ) ;
#119 = AXIS2_PLACEMENT_3D ( 'NONE', #168, #78, #12 ) ;
#120 = FACE_OUTER_BOUND ( 'NONE', #26, .T. ) ;
#121 = CARTESIAN_POINT ( 'NONE',  ( -6.814606366898275776E-30, 2.500000000000000000, -1.951780836141093790E-15 ) ) ;
#122 = EDGE_LOOP ( 'NONE', ( #133 ) ) ;
#123 = CC_DESIGN_SECURITY_CLASSIFICATION ( #47, ( #163 ) ) ;
#124 = ADVANCED_FACE ( 'NONE', ( #120, #49 ), #39, .F. ) ;
#125 = APPROVAL_PERSON_ORGANIZATION ( #148, #126, #43 ) ;
#126 = APPROVAL ( #115, 'UNSPECIFIED' ) ;
#127 = LOCAL_TIME ( 13, 58, 24.00000000000000000, #116 ) ;
#128 = SHAPE_DEFINITION_REPRESENTATION ( #169, #19 ) ;
#129 = PERSON_AND_ORGANIZATION_ROLE ( 'design_supplier' ) ;
#130 = CC_DESIGN_APPROVAL ( #139, ( #47 ) ) ;
#131 = DIRECTION ( 'NONE',  ( -3.491481338843133355E-15, 5.204748896376249713E-16, -1.000000000000000000 ) ) ;
#132 = FACE_OUTER_BOUND ( 'NONE', #158, .T. ) ;
#133 = ORIENTED_EDGE ( 'NONE', *, *, #162, .F. ) ;
#134 = MANIFOLD_SOLID_BREP ( 'Corps-Déplacer/Copier1', #65 ) ;
#135 = EDGE_LOOP ( 'NONE', ( #10 ) ) ;
#136 = CC_DESIGN_PERSON_AND_ORGANIZATION_ASSIGNMENT ( #81, #156, ( #140 ) ) ;
#137 = EDGE_CURVE ( 'NONE', #27, #27, #100, .T. ) ;
#138 = APPROVAL_ROLE ( '' ) ;
#139 = APPROVAL ( #37, 'UNSPECIFIED' ) ;
#140 = PRODUCT_DEFINITION ( 'UNKNOWN', '', #163, #5 ) ;
#141 = FACE_OUTER_BOUND ( 'NONE', #135, .T. ) ;
#142 = VERTEX_POINT ( 'NONE', #25 ) ;
#143 = VERTEX_POINT ( 'NONE', #66 ) ;
#144 = CARTESIAN_POINT ( 'NONE',  ( 1.396592535537246834E-15, 2.500000000000000444, 0.3999999999999981348 ) ) ;
#145 = CC_DESIGN_PERSON_AND_ORGANIZATION_ASSIGNMENT ( #113, #68, ( #108 ) ) ;
#146 = APPLICATION_PROTOCOL_DEFINITION ( 'international standard', 'config_control_design', 1994, #2 ) ;
#147 = ADVANCED_FACE ( 'NONE', ( #141, #132 ), #74, .T. ) ;
#148 = PERSON_AND_ORGANIZATION ( #87, #90 ) ;
#149 = CARTESIAN_POINT ( 'NONE',  ( 0.0000000000000000000, 0.0000000000000000000, 0.0000000000000000000 ) ) ;
#150 = PERSON_AND_ORGANIZATION_ROLE ( 'classification_officer' ) ;
#151 = CARTESIAN_POINT ( 'NONE',  ( 1.396592535537235198E-15, -2.081899558550472916E-16, 0.3999999999999948042 ) ) ;
#152 = SECURITY_CLASSIFICATION_LEVEL ( 'unclassified' ) ;
#153 = CARTESIAN_POINT ( 'NONE',  ( 0.0000000000000000000, 0.0000000000000000000, 0.0000000000000000000 ) ) ;
#154 = AXIS2_PLACEMENT_3D ( 'NONE', #153, #110, #93 ) ;
#155 = ORIENTED_EDGE ( 'NONE', *, *, #11, .T. ) ;
#156 = PERSON_AND_ORGANIZATION_ROLE ( 'creator' ) ;
#157 = CC_DESIGN_DATE_AND_TIME_ASSIGNMENT ( #3, #44, ( #47 ) ) ;
#158 = EDGE_LOOP ( 'NONE', ( #166 ) ) ;
#159 = APPROVAL_PERSON_ORGANIZATION ( #18, #139, #58 ) ;
#160 = ADVANCED_FACE ( 'NONE', ( #40, #7 ), #48, .T. ) ;
#161 = APPROVAL_DATE_TIME ( #89, #6 ) ;
#162 = EDGE_CURVE ( 'NONE', #143, #143, #54, .T. ) ;
#163 = PRODUCT_DEFINITION_FORMATION_WITH_SPECIFIED_SOURCE ( 'ANY', '', #108, .NOT_KNOWN. ) ;
#164 = DIRECTION ( 'NONE',  ( -3.491481338843133355E-15, 5.204748896376249713E-16, -1.000000000000000000 ) ) ;
#165 = EDGE_LOOP ( 'NONE', ( #155 ) ) ;
#166 = ORIENTED_EDGE ( 'NONE', *, *, #11, .F. ) ;
#167 = DIRECTION ( 'NONE',  ( -3.491481338843133355E-15, 5.204748896376249713E-16, -1.000000000000000000 ) ) ;
#168 = CARTESIAN_POINT ( 'NONE',  ( 1.396592535537249003E-15, -2.081899558550493377E-16, 0.3999999999999987454 ) ) ;
#169 = PRODUCT_DEFINITION_SHAPE ( 'NONE', 'NONE',  #140 ) ;
ENDSEC;
END-ISO-10303-21;
