ISO-10303-21;
HEADER;
FILE_DESCRIPTION (( 'STEP AP203' ),
    '1' );
FILE_NAME ('15026.step',
    '2021-10-07T13:46:26',
    ( '' ),
    ( '' ),
    'SwSTEP 2.0',
    'SolidWorks 2019',
    '' );
FILE_SCHEMA (( 'CONFIG_CONTROL_DESIGN' ));
ENDSEC;

DATA;
#1 = DIRECTION ( 'NONE',  ( 3.491481338843133355E-15, -1.224646799147353207E-16, 1.000000000000000000 ) ) ;
#2 = ADVANCED_FACE ( 'NONE', ( #120 ), #94, .T. ) ;
#3 = PLANE ( 'NONE',  #150 ) ;
#4 = DIRECTION ( 'NONE',  ( -3.491481338843133355E-15, 1.224646799147353207E-16, -1.000000000000000000 ) ) ;
#5 = FACE_OUTER_BOUND ( 'NONE', #55, .T. ) ;
#6 = DIRECTION ( 'NONE',  ( -3.491481338843133355E-15, 1.224646799147353207E-16, -1.000000000000000000 ) ) ;
#7 = CYLINDRICAL_SURFACE ( 'NONE', #183, 0.4999999999999982792 ) ;
#8 = CC_DESIGN_APPROVAL ( #117, ( #20 ) ) ;
#9 = PERSON_AND_ORGANIZATION ( #200, #167 ) ;
#10 = AXIS2_PLACEMENT_3D ( 'NONE', #196, #140, #123 ) ;
#11 = EDGE_CURVE ( 'NONE', #77, #77, #86, .T. ) ;
#12 = APPROVAL_ROLE ( '' ) ;
#13 = PERSON_AND_ORGANIZATION_ROLE ( 'creator' ) ;
#14 = CARTESIAN_POINT ( 'NONE',  ( 0.0000000000000000000, 0.0000000000000000000, 0.0000000000000000000 ) ) ;
#15 = ORIENTED_EDGE ( 'NONE', *, *, #56, .T. ) ;
#16 = APPROVAL_DATE_TIME ( #149, #117 ) ;
#17 = EDGE_LOOP ( 'NONE', ( #206 ) ) ;
#18 = AXIS2_PLACEMENT_3D ( 'NONE', #63, #195, #80 ) ;
#19 = EDGE_LOOP ( 'NONE', ( #207 ) ) ;
#20 = SECURITY_CLASSIFICATION ( '', '', #49 ) ;
#21 = DIRECTION ( 'NONE',  ( 0.0000000000000000000, 1.000000000000000000, 0.0000000000000000000 ) ) ;
#22 = DIRECTION ( 'NONE',  ( -3.491481338843133355E-15, 1.224646799147353207E-16, -1.000000000000000000 ) ) ;
#23 = DIRECTION ( 'NONE',  ( -4.275831445896958607E-31, -1.000000000000000000, -1.224646799147353207E-16 ) ) ;
#24 = EDGE_CURVE ( 'NONE', #176, #176, #131, .T. ) ;
#25 = DIRECTION ( 'NONE',  ( -3.491481338843133355E-15, 1.224646799147353207E-16, -1.000000000000000000 ) ) ;
#26 = CC_DESIGN_PERSON_AND_ORGANIZATION_ASSIGNMENT ( #9, #65, ( #129 ) ) ;
#27 = FACE_OUTER_BOUND ( 'NONE', #34, .T. ) ;
#28 = COORDINATED_UNIVERSAL_TIME_OFFSET ( 1, 0, .AHEAD. ) ;
#29 = ADVANCED_FACE ( 'NONE', ( #112, #138 ), #104, .T. ) ;
#30 = DATE_TIME_ROLE ( 'classification_date' ) ;
#31 = AXIS2_PLACEMENT_3D ( 'NONE', #197, #90, #43 ) ;
#32 =( NAMED_UNIT ( * ) SI_UNIT ( $, .STERADIAN. ) SOLID_ANGLE_UNIT ( ) );
#33 = ORIENTED_EDGE ( 'NONE', *, *, #11, .F. ) ;
#34 = EDGE_LOOP ( 'NONE', ( #85 ) ) ;
#35 = CC_DESIGN_PERSON_AND_ORGANIZATION_ASSIGNMENT ( #181, #182, ( #20 ) ) ;
#36 = CARTESIAN_POINT ( 'NONE',  ( 6.982962677686266711E-15, -2.449293598294706414E-16, 2.000000000000000000 ) ) ;
#37 = DIRECTION ( 'NONE',  ( 0.0000000000000000000, 1.000000000000000000, 0.0000000000000000000 ) ) ;
#38 = CLOSED_SHELL ( 'NONE', ( #133, #29, #52, #169, #184 ) ) ;
#39 = AXIS2_PLACEMENT_3D ( 'NONE', #60, #180, #23 ) ;
#40 = FACE_OUTER_BOUND ( 'NONE', #83, .T. ) ;
#41 = VERTEX_POINT ( 'NONE', #214 ) ;
#42 = APPROVAL_PERSON_ORGANIZATION ( #97, #117, #12 ) ;
#43 = DIRECTION ( 'NONE',  ( 0.0000000000000000000, 1.000000000000000000, 0.0000000000000000000 ) ) ;
#44 = EDGE_CURVE ( 'NONE', #92, #92, #48, .T. ) ;
#45 = PERSON_AND_ORGANIZATION ( #200, #167 ) ;
#46 = APPLICATION_PROTOCOL_DEFINITION ( 'international standard', 'config_control_design', 1994, #158 ) ;
#47 = PERSON_AND_ORGANIZATION ( #200, #167 ) ;
#48 = CIRCLE ( 'NONE', #164, 0.4000000000000000222 ) ;
#49 = SECURITY_CLASSIFICATION_LEVEL ( 'unclassified' ) ;
#50 = DESIGN_CONTEXT ( 'detailed design', #158, 'design' ) ;
#51 = CC_DESIGN_SECURITY_CLASSIFICATION ( #20, ( #129 ) ) ;
#52 = ADVANCED_FACE ( 'NONE', ( #40, #110 ), #7, .T. ) ;
#53 = ORIENTED_EDGE ( 'NONE', *, *, #24, .F. ) ;
#54 = DIRECTION ( 'NONE',  ( -4.814824860968115031E-31, -1.000000000000000000, -1.355252715606887692E-16 ) ) ;
#55 = EDGE_LOOP ( 'NONE', ( #53 ) ) ;
#56 = EDGE_CURVE ( 'NONE', #139, #139, #99, .T. ) ;
#57 = ORIENTED_EDGE ( 'NONE', *, *, #107, .T. ) ;
#58 = CYLINDRICAL_SURFACE ( 'NONE', #10, 0.1999999999999990397 ) ;
#59 = LOCAL_TIME ( 15, 46, 26.00000000000000000, #143 ) ;
#60 = CARTESIAN_POINT ( 'NONE',  ( 6.982962677686266711E-15, 1.499759782661847687E-33, 2.000000000000000000 ) ) ;
#61 = CC_DESIGN_PERSON_AND_ORGANIZATION_ASSIGNMENT ( #218, #13, ( #222 ) ) ;
#62 = CARTESIAN_POINT ( 'NONE',  ( 6.982962677686266711E-15, 0.1999999999999989009, 2.000000000000000000 ) ) ;
#63 = CARTESIAN_POINT ( 'NONE',  ( 4.195787277160943328E-16, -1.471684067651605967E-17, 0.1201721238055127317 ) ) ;
#64 = DATE_AND_TIME ( #114, #187 ) ;
#65 = PERSON_AND_ORGANIZATION_ROLE ( 'design_supplier' ) ;
#66 = CALENDAR_DATE ( 2021, 7, 10 ) ;
#67 = AXIS2_PLACEMENT_3D ( 'NONE', #14, #101, #166 ) ;
#68 = APPROVAL_STATUS ( 'not_yet_approved' ) ;
#69 = LOCAL_TIME ( 15, 46, 26.00000000000000000, #185 ) ;
#70 = PRODUCT_RELATED_PRODUCT_CATEGORY ( 'detail', '', ( #108 ) ) ;
#71 = ORIENTED_EDGE ( 'NONE', *, *, #56, .F. ) ;
#72 = AXIS2_PLACEMENT_3D ( 'NONE', #174, #25, #21 ) ;
#73 = CARTESIAN_POINT ( 'NONE',  ( 4.195787277160943328E-16, -1.471684067651605967E-17, 0.1201721238055127317 ) ) ;
#74 = MANIFOLD_SOLID_BREP ( 'Corps-Déplacer/Copier1[1]', #38 ) ;
#75 = DIRECTION ( 'NONE',  ( -3.491481338843133355E-15, 1.224646799147353207E-16, -1.000000000000000000 ) ) ;
#76 = CARTESIAN_POINT ( 'NONE',  ( 1.089207840275869192E-14, -3.820426821018087534E-16, 3.119615242270683542 ) ) ;
#77 = VERTEX_POINT ( 'NONE', #109 ) ;
#78 = AXIS2_PLACEMENT_3D ( 'NONE', #76, #126, #141 ) ;
#79 = FACE_OUTER_BOUND ( 'NONE', #172, .T. ) ;
#80 = DIRECTION ( 'NONE',  ( 4.814824860968115031E-31, 1.000000000000000000, 1.355252715606887692E-16 ) ) ;
#81 = COORDINATED_UNIVERSAL_TIME_OFFSET ( 1, 0, .AHEAD. ) ;
#82 = APPROVAL_STATUS ( 'not_yet_approved' ) ;
#83 = EDGE_LOOP ( 'NONE', ( #148 ) ) ;
#84 = SHAPE_DEFINITION_REPRESENTATION ( #88, #213 ) ;
#85 = ORIENTED_EDGE ( 'NONE', *, *, #44, .F. ) ;
#86 = CIRCLE ( 'NONE', #87, 0.1999999999999991507 ) ;
#87 = AXIS2_PLACEMENT_3D ( 'NONE', #190, #22, #192 ) ;
#88 = PRODUCT_DEFINITION_SHAPE ( 'NONE', 'NONE',  #222 ) ;
#89 = CC_DESIGN_APPROVAL ( #156, ( #129 ) ) ;
#90 = DIRECTION ( 'NONE',  ( -3.491481338843133355E-15, 1.224646799147353207E-16, -1.000000000000000000 ) ) ;
#91 = CARTESIAN_POINT ( 'NONE',  ( 4.195787277160944314E-16, 0.1999999999999989009, 0.1201721238055127594 ) ) ;
#92 = VERTEX_POINT ( 'NONE', #157 ) ;
#93 = DIRECTION ( 'NONE',  ( 0.0000000000000000000, -1.000000000000000000, 0.0000000000000000000 ) ) ;
#94 = CONICAL_SURFACE ( 'NONE', #219, 0.1999999999999989286, 1.029744258676649649 ) ;
#95 = DIRECTION ( 'NONE',  ( 3.491481338843133355E-15, -1.224646799147353207E-16, 1.000000000000000000 ) ) ;
#96 = DATE_AND_TIME ( #118, #189 ) ;
#97 = PERSON_AND_ORGANIZATION ( #200, #167 ) ;
#98 = CC_DESIGN_PERSON_AND_ORGANIZATION_ASSIGNMENT ( #147, #202, ( #108 ) ) ;
#99 = CIRCLE ( 'NONE', #170, 0.1999999999999991507 ) ;
#100 = APPLICATION_PROTOCOL_DEFINITION ( 'international standard', 'config_control_design', 1994, #152 ) ;
#101 = DIRECTION ( 'NONE',  ( 0.0000000000000000000, 0.0000000000000000000, 1.000000000000000000 ) ) ;
#102 = ORIENTED_EDGE ( 'NONE', *, *, #177, .F. ) ;
#103 = EDGE_LOOP ( 'NONE', ( #151 ) ) ;
#104 = CONICAL_SURFACE ( 'NONE', #125, 0.4999999999999967804, 0.2617993877991429130 ) ;
#105 = EDGE_LOOP ( 'NONE', ( #33 ) ) ;
#106 = FACE_BOUND ( 'NONE', #19, .T. ) ;
#107 = EDGE_CURVE ( 'NONE', #41, #41, #221, .T. ) ;
#108 = PRODUCT ( '15026', '15026', '', ( #128 ) ) ;
#109 = CARTESIAN_POINT ( 'NONE',  ( 6.982962677686266711E-15, 0.1999999999999989009, 2.000000000000000000 ) ) ;
#110 = FACE_OUTER_BOUND ( 'NONE', #223, .T. ) ;
#111 = DIRECTION ( 'NONE',  ( 4.275831445896958607E-31, 1.000000000000000000, 1.224646799147353207E-16 ) ) ;
#112 = FACE_BOUND ( 'NONE', #105, .T. ) ;
#113 = PERSON_AND_ORGANIZATION_ROLE ( 'creator' ) ;
#114 = CALENDAR_DATE ( 2021, 7, 10 ) ;
#115 = LOCAL_TIME ( 15, 46, 26.00000000000000000, #217 ) ;
#116 = CONICAL_SURFACE ( 'NONE', #72, 0.4000000000000000222, 0.7853981633974507215 ) ;
#117 = APPROVAL ( #163, 'UNSPECIFIED' ) ;
#118 = CALENDAR_DATE ( 2021, 7, 10 ) ;
#119 = CALENDAR_DATE ( 2021, 7, 10 ) ;
#120 = FACE_OUTER_BOUND ( 'NONE', #17, .T. ) ;
#121 = CC_DESIGN_APPROVAL ( #136, ( #222 ) ) ;
#122 = PLANE ( 'NONE',  #211 ) ;
#123 = DIRECTION ( 'NONE',  ( 4.275831445896958607E-31, 1.000000000000000000, 1.224646799147353207E-16 ) ) ;
#124 = DIRECTION ( 'NONE',  ( 0.0000000000000000000, 1.000000000000000000, 0.0000000000000000000 ) ) ;
#125 = AXIS2_PLACEMENT_3D ( 'NONE', #127, #95, #93 ) ;
#126 = DIRECTION ( 'NONE',  ( -3.491481338843133355E-15, 1.224646799147353207E-16, -1.000000000000000000 ) ) ;
#127 = CARTESIAN_POINT ( 'NONE',  ( 1.089207840275869192E-14, -3.820426821018087534E-16, 3.119615242270683542 ) ) ;
#128 = MECHANICAL_CONTEXT ( 'NONE', #152, 'mechanical' ) ;
#129 = PRODUCT_DEFINITION_FORMATION_WITH_SPECIFIED_SOURCE ( 'ANY', '', #108, .NOT_KNOWN. ) ;
#130 = CARTESIAN_POINT ( 'NONE',  ( 1.043952920314096810E-13, 0.4999999999999962252, 29.89999999999999858 ) ) ;
#131 = CIRCLE ( 'NONE', #18, 0.1999999999999989286 ) ;
#132 = APPROVAL_ROLE ( '' ) ;
#133 = ADVANCED_FACE ( 'NONE', ( #137 ), #122, .F. ) ;
#134 = ORIENTED_EDGE ( 'NONE', *, *, #177, .T. ) ;
#135 = MANIFOLD_SOLID_BREP ( 'Corps-Déplacer/Copier1[2]', #175 ) ;
#136 = APPROVAL ( #82, 'UNSPECIFIED' ) ;
#137 = FACE_OUTER_BOUND ( 'NONE', #103, .T. ) ;
#138 = FACE_OUTER_BOUND ( 'NONE', #153, .T. ) ;
#139 = VERTEX_POINT ( 'NONE', #62 ) ;
#140 = DIRECTION ( 'NONE',  ( -3.491481338843133355E-15, 1.224646799147353207E-16, -1.000000000000000000 ) ) ;
#141 = DIRECTION ( 'NONE',  ( 0.0000000000000000000, 1.000000000000000000, 0.0000000000000000000 ) ) ;
#142 = APPROVAL_PERSON_ORGANIZATION ( #47, #156, #132 ) ;
#143 = COORDINATED_UNIVERSAL_TIME_OFFSET ( 1, 0, .AHEAD. ) ;
#144 = VERTEX_POINT ( 'NONE', #130 ) ;
#145 = APPROVAL_DATE_TIME ( #165, #136 ) ;
#146 = DATE_AND_TIME ( #66, #59 ) ;
#147 = PERSON_AND_ORGANIZATION ( #200, #167 ) ;
#148 = ORIENTED_EDGE ( 'NONE', *, *, #107, .F. ) ;
#149 = DATE_AND_TIME ( #119, #115 ) ;
#150 = AXIS2_PLACEMENT_3D ( 'NONE', #155, #75, #111 ) ;
#151 = ORIENTED_EDGE ( 'NONE', *, *, #11, .T. ) ;
#152 = APPLICATION_CONTEXT ( 'configuration controlled 3d designs of mechanical parts and assemblies' ) ;
#153 = EDGE_LOOP ( 'NONE', ( #57 ) ) ;
#154 = DIRECTION ( 'NONE',  ( 4.275831445896958607E-31, 1.000000000000000000, 1.224646799147353207E-16 ) ) ;
#155 = CARTESIAN_POINT ( 'NONE',  ( 1.047444401652940007E-13, 2.999519565323660135E-33, 30.00000000000000000 ) ) ;
#156 = APPROVAL ( #68, 'UNSPECIFIED' ) ;
#157 = CARTESIAN_POINT ( 'NONE',  ( 1.047444401652940007E-13, 0.3999999999999963585, 30.00000000000000000 ) ) ;
#158 = APPLICATION_CONTEXT ( 'configuration controlled 3d designs of mechanical parts and assemblies' ) ;
#159 = CARTESIAN_POINT ( 'NONE',  ( 6.982962677686266711E-15, 1.499759782661847687E-33, 2.000000000000000000 ) ) ;
#160 = DIRECTION ( 'NONE',  ( -3.491481338843133355E-15, 1.224646799147353207E-16, -1.000000000000000000 ) ) ;
#161 = APPROVAL_ROLE ( '' ) ;
#162 = CC_DESIGN_DATE_AND_TIME_ASSIGNMENT ( #96, #30, ( #20 ) ) ;
#163 = APPROVAL_STATUS ( 'not_yet_approved' ) ;
#164 = AXIS2_PLACEMENT_3D ( 'NONE', #212, #160, #124 ) ;
#165 = DATE_AND_TIME ( #168, #69 ) ;
#166 = DIRECTION ( 'NONE',  ( 1.000000000000000000, 0.0000000000000000000, 0.0000000000000000000 ) ) ;
#167 = ORGANIZATION ( 'UNSPECIFIED', 'UNSPECIFIED', '' ) ;
#168 = CALENDAR_DATE ( 2021, 7, 10 ) ;
#169 = ADVANCED_FACE ( 'NONE', ( #79, #106 ), #116, .T. ) ;
#170 = AXIS2_PLACEMENT_3D ( 'NONE', #36, #6, #37 ) ;
#171 = APPROVAL_PERSON_ORGANIZATION ( #45, #136, #161 ) ;
#172 = EDGE_LOOP ( 'NONE', ( #102 ) ) ;
#173 = ADVANCED_FACE ( 'NONE', ( #210 ), #178, .T. ) ;
#174 = CARTESIAN_POINT ( 'NONE',  ( 1.047444401652940007E-13, -3.673940397442059178E-15, 30.00000000000000000 ) ) ;
#175 = CLOSED_SHELL ( 'NONE', ( #2, #193, #173 ) ) ;
#176 = VERTEX_POINT ( 'NONE', #91 ) ;
#177 = EDGE_CURVE ( 'NONE', #144, #144, #194, .T. ) ;
#178 = PLANE ( 'NONE',  #39 ) ;
#179 = CARTESIAN_POINT ( 'NONE',  ( 0.0000000000000000000, 0.0000000000000000000, 0.0000000000000000000 ) ) ;
#180 = DIRECTION ( 'NONE',  ( 3.491481338843133355E-15, -1.224646799147353207E-16, 1.000000000000000000 ) ) ;
#181 = PERSON_AND_ORGANIZATION ( #200, #167 ) ;
#182 = PERSON_AND_ORGANIZATION_ROLE ( 'classification_officer' ) ;
#183 = AXIS2_PLACEMENT_3D ( 'NONE', #179, #4, #154 ) ;
#184 = ADVANCED_FACE ( 'NONE', ( #27 ), #3, .F. ) ;
#185 = COORDINATED_UNIVERSAL_TIME_OFFSET ( 1, 0, .AHEAD. ) ;
#186 =( LENGTH_UNIT ( ) NAMED_UNIT ( * ) SI_UNIT ( .MILLI., .METRE. ) );
#187 = LOCAL_TIME ( 15, 46, 26.00000000000000000, #81 ) ;
#188 = EDGE_LOOP ( 'NONE', ( #71 ) ) ;
#189 = LOCAL_TIME ( 15, 46, 26.00000000000000000, #28 ) ;
#190 = CARTESIAN_POINT ( 'NONE',  ( 6.982962677686266711E-15, -2.449293598294706414E-16, 2.000000000000000000 ) ) ;
#191 = DIRECTION ( 'NONE',  ( -4.275831445896958607E-31, -1.000000000000000000, -1.224646799147353207E-16 ) ) ;
#192 = DIRECTION ( 'NONE',  ( 0.0000000000000000000, 1.000000000000000000, 0.0000000000000000000 ) ) ;
#193 = ADVANCED_FACE ( 'NONE', ( #5, #209 ), #58, .T. ) ;
#194 = CIRCLE ( 'NONE', #31, 0.4999999999999998890 ) ;
#195 = DIRECTION ( 'NONE',  ( -3.491481338843133355E-15, 1.224646799147353207E-16, -1.000000000000000000 ) ) ;
#196 = CARTESIAN_POINT ( 'NONE',  ( 0.0000000000000000000, 0.0000000000000000000, 0.0000000000000000000 ) ) ;
#197 = CARTESIAN_POINT ( 'NONE',  ( 1.043952920314096810E-13, -3.661693929450586610E-15, 29.89999999999999858 ) ) ;
#198 =( GEOMETRIC_REPRESENTATION_CONTEXT ( 3 ) GLOBAL_UNCERTAINTY_ASSIGNED_CONTEXT ( ( #204 ) ) GLOBAL_UNIT_ASSIGNED_CONTEXT ( ( #186, #201, #32 ) ) REPRESENTATION_CONTEXT ( 'NONE', 'WORKASPACE' ) );
#199 = PERSON_AND_ORGANIZATION ( #200, #167 ) ;
#200 = PERSON ( 'UNSPECIFIED', 'UNSPECIFIED', 'UNSPECIFIED', ('UNSPECIFIED'), ('UNSPECIFIED'), ('UNSPECIFIED') ) ;
#201 =( NAMED_UNIT ( * ) PLANE_ANGLE_UNIT ( ) SI_UNIT ( $, .RADIAN. ) );
#202 = PERSON_AND_ORGANIZATION_ROLE ( 'design_owner' ) ;
#203 = CC_DESIGN_DATE_AND_TIME_ASSIGNMENT ( #146, #216, ( #222 ) ) ;
#204 = UNCERTAINTY_MEASURE_WITH_UNIT (LENGTH_MEASURE( 1.000000000000000082E-05 ), #186, 'distance_accuracy_value', 'NONE');
#205 = APPROVAL_DATE_TIME ( #64, #156 ) ;
#206 = ORIENTED_EDGE ( 'NONE', *, *, #24, .T. ) ;
#207 = ORIENTED_EDGE ( 'NONE', *, *, #44, .T. ) ;
#208 = CC_DESIGN_PERSON_AND_ORGANIZATION_ASSIGNMENT ( #199, #113, ( #129 ) ) ;
#209 = FACE_OUTER_BOUND ( 'NONE', #220, .T. ) ;
#210 = FACE_OUTER_BOUND ( 'NONE', #188, .T. ) ;
#211 = AXIS2_PLACEMENT_3D ( 'NONE', #159, #215, #191 ) ;
#212 = CARTESIAN_POINT ( 'NONE',  ( 1.047444401652940007E-13, -3.673940397442059178E-15, 30.00000000000000000 ) ) ;
#213 = ADVANCED_BREP_SHAPE_REPRESENTATION ( '15026', ( #74, #135, #67 ), #198 ) ;
#214 = CARTESIAN_POINT ( 'NONE',  ( 1.089207840275869192E-14, 0.4999999999999963363, 3.119615242270683542 ) ) ;
#215 = DIRECTION ( 'NONE',  ( 3.491481338843133355E-15, -1.224646799147353207E-16, 1.000000000000000000 ) ) ;
#216 = DATE_TIME_ROLE ( 'creation_date' ) ;
#217 = COORDINATED_UNIVERSAL_TIME_OFFSET ( 1, 0, .AHEAD. ) ;
#218 = PERSON_AND_ORGANIZATION ( #200, #167 ) ;
#219 = AXIS2_PLACEMENT_3D ( 'NONE', #73, #1, #54 ) ;
#220 = EDGE_LOOP ( 'NONE', ( #15 ) ) ;
#221 = CIRCLE ( 'NONE', #78, 0.4999999999999967804 ) ;
#222 = PRODUCT_DEFINITION ( 'UNKNOWN', '', #129, #50 ) ;
#223 = EDGE_LOOP ( 'NONE', ( #134 ) ) ;
ENDSEC;
END-ISO-10303-21;
