ISO-10303-21;
HEADER;
FILE_DESCRIPTION (( 'STEP AP203' ),
    '1' );
FILE_NAME ('14939.step',
    '2021-09-03T07:21:21',
    ( '' ),
    ( '' ),
    'SwSTEP 2.0',
    'SolidWorks 2019',
    '' );
FILE_SCHEMA (( 'CONFIG_CONTROL_DESIGN' ));
ENDSEC;

DATA;
#1 = CIRCLE ( 'NONE', #211, 6.000000000000008882 ) ;
#2 = LINE ( 'NONE', #286, #303 ) ;
#3 = VECTOR ( 'NONE', #13, 999.9999999999998863 ) ;
#4 = DIRECTION ( 'NONE',  ( 3.491481338843133355E-15, -1.224646799147353207E-16, 1.000000000000000000 ) ) ;
#5 = EDGE_CURVE ( 'NONE', #102, #131, #194, .T. ) ;
#6 = DIRECTION ( 'NONE',  ( 0.0000000000000000000, 1.000000000000000000, 0.0000000000000000000 ) ) ;
#7 = DIRECTION ( 'NONE',  ( -3.491481338843133355E-15, 1.224646799147353207E-16, -1.000000000000000000 ) ) ;
#8 = CIRCLE ( 'NONE', #94, 6.000000000000000888 ) ;
#9 = PERSON_AND_ORGANIZATION ( #98, #283 ) ;
#10 = DIRECTION ( 'NONE',  ( -3.491481338843133355E-15, 1.224646799147353207E-16, -1.000000000000000000 ) ) ;
#11 = ORIENTED_EDGE ( 'NONE', *, *, #153, .F. ) ;
#12 = COORDINATED_UNIVERSAL_TIME_OFFSET ( 1, 0, .AHEAD. ) ;
#13 = DIRECTION ( 'NONE',  ( -2.468850131082283487E-15, 0.7071067811865424657, -0.7071067811865526798 ) ) ;
#14 = DIRECTION ( 'NONE',  ( -3.491481338843133355E-15, 1.224646799147353207E-16, -1.000000000000000000 ) ) ;
#15 = VECTOR ( 'NONE', #293, 1000.000000000000000 ) ;
#16 = EDGE_CURVE ( 'NONE', #46, #108, #149, .T. ) ;
#17 = FACE_OUTER_BOUND ( 'NONE', #178, .T. ) ;
#18 = ADVANCED_FACE ( 'NONE', ( #17 ), #115, .T. ) ;
#19 = DIRECTION ( 'NONE',  ( 0.0000000000000000000, 1.000000000000000000, 0.0000000000000000000 ) ) ;
#20 = CARTESIAN_POINT ( 'NONE',  ( 0.0000000000000000000, 0.0000000000000000000, 0.0000000000000000000 ) ) ;
#21 = DIRECTION ( 'NONE',  ( -2.382254525458735219E-15, -0.7071067811865422437, -0.7071067811865527908 ) ) ;
#22 = CARTESIAN_POINT ( 'NONE',  ( 3.526396152231564058E-13, 5.999999999999996447, 100.9999999999999716 ) ) ;
#23 = VERTEX_POINT ( 'NONE', #66 ) ;
#24 = EDGE_LOOP ( 'NONE', ( #11, #99, #236 ) ) ;
#25 = DIRECTION ( 'NONE',  ( -4.275831445896958607E-31, -1.000000000000000000, -1.224646799147353207E-16 ) ) ;
#26 = ORIENTED_EDGE ( 'NONE', *, *, #190, .F. ) ;
#27 = AXIS2_PLACEMENT_3D ( 'NONE', #191, #276, #187 ) ;
#28 = CARTESIAN_POINT ( 'NONE',  ( 2.565498867538175164E-30, 5.999999999999999112, 7.347880794884118750E-16 ) ) ;
#29 = ORIENTED_EDGE ( 'NONE', *, *, #5, .T. ) ;
#30 = DATE_AND_TIME ( #337, #45 ) ;
#31 = DIRECTION ( 'NONE',  ( -5.135813185032631277E-31, -1.000000000000000000, -1.445602896647339903E-16 ) ) ;
#32 = EDGE_LOOP ( 'NONE', ( #82, #128, #136, #267 ) ) ;
#33 = DIRECTION ( 'NONE',  ( -3.491481338843133355E-15, 1.224646799147353207E-16, -1.000000000000000000 ) ) ;
#34 = EDGE_CURVE ( 'NONE', #78, #157, #124, .T. ) ;
#35 = PERSON_AND_ORGANIZATION ( #98, #283 ) ;
#36 = AXIS2_PLACEMENT_3D ( 'NONE', #193, #171, #195 ) ;
#37 = EDGE_CURVE ( 'NONE', #108, #46, #290, .T. ) ;
#38 = DIRECTION ( 'NONE',  ( -3.491481338843133355E-15, 1.224646799147353207E-16, -1.000000000000000000 ) ) ;
#39 = DIRECTION ( 'NONE',  ( -3.491481338843133355E-15, 1.224646799147353207E-16, -1.000000000000000000 ) ) ;
#40 = CARTESIAN_POINT ( 'NONE',  ( 1.258736183148288964E-14, -4.415052202954838978E-16, 3.605163714165398492 ) ) ;
#41 = CONICAL_SURFACE ( 'NONE', #197, 5.999999999999997335, 1.029744258676649871 ) ;
#42 = MANIFOLD_SOLID_BREP ( 'Corps-Déplacer/Copier1[1]', #257 ) ;
#43 = EDGE_CURVE ( 'NONE', #131, #209, #103, .T. ) ;
#44 = EDGE_CURVE ( 'NONE', #102, #160, #8, .T. ) ;
#45 = LOCAL_TIME ( 9, 21, 21.00000000000000000, #95 ) ;
#46 = VERTEX_POINT ( 'NONE', #218 ) ;
#47 = AXIS2_PLACEMENT_3D ( 'NONE', #263, #318, #6 ) ;
#48 = VERTEX_POINT ( 'NONE', #20 ) ;
#49 = APPROVAL ( #237, 'UNSPECIFIED' ) ;
#50 = DIRECTION ( 'NONE',  ( -4.275831445896958607E-31, -1.000000000000000000, -1.224646799147353207E-16 ) ) ;
#51 = ORIENTED_EDGE ( 'NONE', *, *, #43, .T. ) ;
#52 = ORIENTED_EDGE ( 'NONE', *, *, #215, .F. ) ;
#53 =( NAMED_UNIT ( * ) PLANE_ANGLE_UNIT ( ) SI_UNIT ( $, .RADIAN. ) );
#54 = CARTESIAN_POINT ( 'NONE',  ( 1.222018468595096801E-13, 5.999999999999996447, 35.00000000000000000 ) ) ;
#55 = AXIS2_PLACEMENT_3D ( 'NONE', #233, #7, #179 ) ;
#56 = PERSON_AND_ORGANIZATION ( #98, #283 ) ;
#57 = CARTESIAN_POINT ( 'NONE',  ( 1.258736183148288649E-14, -5.999999999999998224, 3.605163714165397604 ) ) ;
#58 = ORIENTED_EDGE ( 'NONE', *, *, #91, .T. ) ;
#59 = APPLICATION_PROTOCOL_DEFINITION ( 'international standard', 'config_control_design', 1994, #132 ) ;
#60 = DATE_AND_TIME ( #275, #121 ) ;
#61 = ADVANCED_FACE ( 'NONE', ( #119 ), #185, .T. ) ;
#62 = ORIENTED_EDGE ( 'NONE', *, *, #44, .F. ) ;
#63 = CARTESIAN_POINT ( 'NONE',  ( 0.0000000000000000000, 0.0000000000000000000, 0.0000000000000000000 ) ) ;
#64 = CC_DESIGN_DATE_AND_TIME_ASSIGNMENT ( #183, #169, ( #120 ) ) ;
#65 = APPROVAL_PERSON_ORGANIZATION ( #140, #335, #227 ) ;
#66 = CARTESIAN_POINT ( 'NONE',  ( 2.381555191208213781E-13, -6.000000000000005329, 35.00000000000000000 ) ) ;
#67 = PERSON_AND_ORGANIZATION_ROLE ( 'creator' ) ;
#68 = CARTESIAN_POINT ( 'NONE',  ( 1.222018468595096801E-13, -4.286263797015736496E-15, 35.00000000000000000 ) ) ;
#69 = APPROVAL ( #277, 'UNSPECIFIED' ) ;
#70 = CLOSED_SHELL ( 'NONE', ( #130, #175, #266, #224, #101 ) ) ;
#71 =( GEOMETRIC_REPRESENTATION_CONTEXT ( 3 ) GLOBAL_UNCERTAINTY_ASSIGNED_CONTEXT ( ( #152 ) ) GLOBAL_UNIT_ASSIGNED_CONTEXT ( ( #323, #53, #304 ) ) REPRESENTATION_CONTEXT ( 'NONE', 'WORKASPACE' ) );
#72 = DIRECTION ( 'NONE',  ( 0.0000000000000000000, 1.000000000000000000, 0.0000000000000000000 ) ) ;
#73 = EDGE_CURVE ( 'NONE', #157, #23, #147, .T. ) ;
#74 = CIRCLE ( 'NONE', #200, 6.000000000000000888 ) ;
#75 = ORIENTED_EDGE ( 'NONE', *, *, #91, .F. ) ;
#76 = DESIGN_CONTEXT ( 'detailed design', #132, 'design' ) ;
#77 = CARTESIAN_POINT ( 'NONE',  ( 3.526396152231564058E-13, -1.236893267138826416E-14, 100.9999999999999716 ) ) ;
#78 = VERTEX_POINT ( 'NONE', #22 ) ;
#79 = LOCAL_TIME ( 9, 21, 21.00000000000000000, #12 ) ;
#80 = EDGE_LOOP ( 'NONE', ( #155, #319, #329, #300 ) ) ;
#81 = DIRECTION ( 'NONE',  ( 4.275831445896959482E-31, 1.000000000000000000, 1.224646799147353207E-16 ) ) ;
#82 = ORIENTED_EDGE ( 'NONE', *, *, #93, .F. ) ;
#83 = APPROVAL_DATE_TIME ( #30, #335 ) ;
#84 = FACE_OUTER_BOUND ( 'NONE', #80, .T. ) ;
#85 = FACE_OUTER_BOUND ( 'NONE', #231, .T. ) ;
#86 = CARTESIAN_POINT ( 'NONE',  ( 3.561310965619995770E-13, -1.249139735130300089E-14, 102.0000000000000000 ) ) ;
#87 = PERSON_AND_ORGANIZATION_ROLE ( 'creator' ) ;
#88 = CARTESIAN_POINT ( 'NONE',  ( 3.526396152231564058E-13, -1.236893267138826416E-14, 100.9999999999999716 ) ) ;
#89 = AXIS2_PLACEMENT_3D ( 'NONE', #278, #217, #333 ) ;
#90 = APPROVAL_PERSON_ORGANIZATION ( #334, #69, #216 ) ;
#91 = EDGE_CURVE ( 'NONE', #321, #23, #74, .T. ) ;
#92 = VECTOR ( 'NONE', #212, 1000.000000000000114 ) ;
#93 = EDGE_CURVE ( 'NONE', #46, #157, #2, .T. ) ;
#94 = AXIS2_PLACEMENT_3D ( 'NONE', #68, #170, #117 ) ;
#95 = COORDINATED_UNIVERSAL_TIME_OFFSET ( 1, 0, .AHEAD. ) ;
#96 = ORIENTED_EDGE ( 'NONE', *, *, #73, .T. ) ;
#97 = DIRECTION ( 'NONE',  ( -3.491481338843133355E-15, 1.224646799147353207E-16, -1.000000000000000000 ) ) ;
#98 = PERSON ( 'UNSPECIFIED', 'UNSPECIFIED', 'UNSPECIFIED', ('UNSPECIFIED'), ('UNSPECIFIED'), ('UNSPECIFIED') ) ;
#99 = ORIENTED_EDGE ( 'NONE', *, *, #254, .T. ) ;
#100 = CARTESIAN_POINT ( 'NONE',  ( 2.565498867538177266E-30, 6.000000000000005329, 7.347880794884125653E-16 ) ) ;
#101 = ADVANCED_FACE ( 'NONE', ( #122 ), #226, .T. ) ;
#102 = VERTEX_POINT ( 'NONE', #154 ) ;
#103 = CIRCLE ( 'NONE', #146, 5.999999999999997335 ) ;
#104 = AXIS2_PLACEMENT_3D ( 'NONE', #174, #4, #25 ) ;
#105 = ADVANCED_FACE ( 'NONE', ( #265 ), #156, .F. ) ;
#106 = EDGE_LOOP ( 'NONE', ( #58, #294 ) ) ;
#107 = DIRECTION ( 'NONE',  ( 4.275831445896958607E-31, 1.000000000000000000, 1.224646799147353207E-16 ) ) ;
#108 = VERTEX_POINT ( 'NONE', #298 ) ;
#109 = DIRECTION ( 'NONE',  ( 3.491481338843133355E-15, -1.224646799147353207E-16, 1.000000000000000000 ) ) ;
#110 = DATE_TIME_ROLE ( 'classification_date' ) ;
#111 = DIRECTION ( 'NONE',  ( 4.275831445896959482E-31, 1.000000000000000000, 1.224646799147353207E-16 ) ) ;
#112 = CIRCLE ( 'NONE', #292, 5.999999999999997335 ) ;
#113 = DIRECTION ( 'NONE',  ( 0.0000000000000000000, 1.000000000000000000, 0.0000000000000000000 ) ) ;
#114 = PERSON_AND_ORGANIZATION_ROLE ( 'classification_officer' ) ;
#115 = CYLINDRICAL_SURFACE ( 'NONE', #89, 6.000000000000005329 ) ;
#116 = CALENDAR_DATE ( 2021, 3, 9 ) ;
#117 = DIRECTION ( 'NONE',  ( 0.0000000000000000000, 1.000000000000000000, 0.0000000000000000000 ) ) ;
#118 = VECTOR ( 'NONE', #38, 1000.000000000000000 ) ;
#119 = FACE_OUTER_BOUND ( 'NONE', #32, .T. ) ;
#120 = PRODUCT_DEFINITION ( 'UNKNOWN', '', #223, #76 ) ;
#121 = LOCAL_TIME ( 9, 21, 21.00000000000000000, #243 ) ;
#122 = FACE_OUTER_BOUND ( 'NONE', #234, .T. ) ;
#123 = CARTESIAN_POINT ( 'NONE',  ( 1.222018468595096801E-13, 4.499279347985566802E-32, 35.00000000000000000 ) ) ;
#124 = CIRCLE ( 'NONE', #244, 6.000000000000008882 ) ;
#125 = AXIS2_PLACEMENT_3D ( 'NONE', #86, #308, #189 ) ;
#126 = ORIENTED_EDGE ( 'NONE', *, *, #37, .T. ) ;
#127 = PLANE ( 'NONE',  #104 ) ;
#128 = ORIENTED_EDGE ( 'NONE', *, *, #16, .T. ) ;
#129 = DIRECTION ( 'NONE',  ( -3.491481338843133355E-15, 1.224646799147353207E-16, -1.000000000000000000 ) ) ;
#130 = ADVANCED_FACE ( 'NONE', ( #268 ), #133, .T. ) ;
#131 = VERTEX_POINT ( 'NONE', #138 ) ;
#132 = APPLICATION_CONTEXT ( 'configuration controlled 3d designs of mechanical parts and assemblies' ) ;
#133 = CYLINDRICAL_SURFACE ( 'NONE', #305, 5.999999999999999112 ) ;
#134 = PRODUCT ( '14939', '14939', '', ( #135 ) ) ;
#135 = MECHANICAL_CONTEXT ( 'NONE', #213, 'mechanical' ) ;
#136 = ORIENTED_EDGE ( 'NONE', *, *, #190, .T. ) ;
#137 = LINE ( 'NONE', #57, #143 ) ;
#138 = CARTESIAN_POINT ( 'NONE',  ( 1.258736183148288649E-14, -5.999999999999998224, 3.605163714165397604 ) ) ;
#139 = CYLINDRICAL_SURFACE ( 'NONE', #186, 5.999999999999999112 ) ;
#140 = PERSON_AND_ORGANIZATION ( #98, #283 ) ;
#141 = AXIS2_PLACEMENT_3D ( 'NONE', #282, #39, #314 ) ;
#142 = DIRECTION ( 'NONE',  ( -3.491481338843133355E-15, 1.224646799147353207E-16, -1.000000000000000000 ) ) ;
#143 = VECTOR ( 'NONE', #325, 1000.000000000000000 ) ;
#144 = CARTESIAN_POINT ( 'NONE',  ( 7.347880794884101001E-16, -6.000000000000005329, -7.347880794884151291E-16 ) ) ;
#145 = CC_DESIGN_DATE_AND_TIME_ASSIGNMENT ( #60, #110, ( #235 ) ) ;
#146 = AXIS2_PLACEMENT_3D ( 'NONE', #40, #142, #252 ) ;
#147 = LINE ( 'NONE', #144, #287 ) ;
#148 = ORIENTED_EDGE ( 'NONE', *, *, #215, .T. ) ;
#149 = CIRCLE ( 'NONE', #203, 5.000000000000008882 ) ;
#150 = AXIS2_PLACEMENT_3D ( 'NONE', #273, #10, #107 ) ;
#151 = ORIENTED_EDGE ( 'NONE', *, *, #93, .T. ) ;
#152 = UNCERTAINTY_MEASURE_WITH_UNIT (LENGTH_MEASURE( 1.000000000000000082E-05 ), #323, 'distance_accuracy_value', 'NONE');
#153 = EDGE_CURVE ( 'NONE', #48, #131, #137, .T. ) ;
#154 = CARTESIAN_POINT ( 'NONE',  ( 6.812939242498465551E-14, -6.000000000000006217, 35.00000000000000000 ) ) ;
#155 = ORIENTED_EDGE ( 'NONE', *, *, #73, .F. ) ;
#156 = PLANE ( 'NONE',  #55 ) ;
#157 = VERTEX_POINT ( 'NONE', #301 ) ;
#158 = DATE_AND_TIME ( #116, #79 ) ;
#159 = CYLINDRICAL_SURFACE ( 'NONE', #150, 6.000000000000005329 ) ;
#160 = VERTEX_POINT ( 'NONE', #54 ) ;
#161 = CARTESIAN_POINT ( 'NONE',  ( 1.222018468595096801E-13, -4.286263797015736496E-15, 35.00000000000000000 ) ) ;
#162 = COORDINATED_UNIVERSAL_TIME_OFFSET ( 1, 0, .AHEAD. ) ;
#163 = PRODUCT_RELATED_PRODUCT_CATEGORY ( 'detail', '', ( #134 ) ) ;
#164 = FACE_OUTER_BOUND ( 'NONE', #264, .T. ) ;
#165 = DIRECTION ( 'NONE',  ( -3.491481338843133355E-15, 1.224646799147353207E-16, -1.000000000000000000 ) ) ;
#166 = CC_DESIGN_SECURITY_CLASSIFICATION ( #235, ( #223 ) ) ;
#167 = COORDINATED_UNIVERSAL_TIME_OFFSET ( 1, 0, .AHEAD. ) ;
#168 = EDGE_CURVE ( 'NONE', #160, #209, #270, .T. ) ;
#169 = DATE_TIME_ROLE ( 'creation_date' ) ;
#170 = DIRECTION ( 'NONE',  ( -3.491481338843133355E-15, 1.224646799147353207E-16, -1.000000000000000000 ) ) ;
#171 = DIRECTION ( 'NONE',  ( 0.0000000000000000000, 0.0000000000000000000, 1.000000000000000000 ) ) ;
#172 = CIRCLE ( 'NONE', #47, 6.000000000000000888 ) ;
#173 = LOCAL_TIME ( 9, 21, 21.00000000000000000, #167 ) ;
#174 = CARTESIAN_POINT ( 'NONE',  ( 1.222018468595096801E-13, 4.499279347985566802E-32, 35.00000000000000000 ) ) ;
#175 = ADVANCED_FACE ( 'NONE', ( #184 ), #41, .T. ) ;
#176 = ORIENTED_EDGE ( 'NONE', *, *, #284, .F. ) ;
#177 = CARTESIAN_POINT ( 'NONE',  ( 1.222018468595096801E-13, 5.999999999999996447, 35.00000000000000000 ) ) ;
#178 = EDGE_LOOP ( 'NONE', ( #326, #96, #75, #176 ) ) ;
#179 = DIRECTION ( 'NONE',  ( 4.275831445896958607E-31, 1.000000000000000000, 1.224646799147353207E-16 ) ) ;
#180 = ORIENTED_EDGE ( 'NONE', *, *, #37, .F. ) ;
#181 = PRODUCT_DEFINITION_SHAPE ( 'NONE', 'NONE',  #120 ) ;
#182 = ORIENTED_EDGE ( 'NONE', *, *, #43, .F. ) ;
#183 = DATE_AND_TIME ( #310, #288 ) ;
#184 = FACE_OUTER_BOUND ( 'NONE', #24, .T. ) ;
#185 = CONICAL_SURFACE ( 'NONE', #219, 5.000000000000008882, 0.7853981633974410625 ) ;
#186 = AXIS2_PLACEMENT_3D ( 'NONE', #63, #14, #111 ) ;
#187 = DIRECTION ( 'NONE',  ( -5.135813185032631277E-31, -1.000000000000000000, -1.445602896647339903E-16 ) ) ;
#188 = APPROVAL_DATE_TIME ( #281, #69 ) ;
#189 = DIRECTION ( 'NONE',  ( 0.0000000000000000000, 1.000000000000000000, 0.0000000000000000000 ) ) ;
#190 = EDGE_CURVE ( 'NONE', #108, #78, #208, .T. ) ;
#191 = CARTESIAN_POINT ( 'NONE',  ( 1.258736183148288964E-14, -4.415052202954838978E-16, 3.605163714165398492 ) ) ;
#192 = DIRECTION ( 'NONE',  ( -3.491481338843133355E-15, 1.224646799147353207E-16, -1.000000000000000000 ) ) ;
#193 = CARTESIAN_POINT ( 'NONE',  ( 0.0000000000000000000, 0.0000000000000000000, 0.0000000000000000000 ) ) ;
#194 = LINE ( 'NONE', #309, #118 ) ;
#195 = DIRECTION ( 'NONE',  ( 1.000000000000000000, 0.0000000000000000000, 0.0000000000000000000 ) ) ;
#196 = DIRECTION ( 'NONE',  ( -3.491481338843133355E-15, 1.224646799147353207E-16, -1.000000000000000000 ) ) ;
#197 = AXIS2_PLACEMENT_3D ( 'NONE', #240, #109, #31 ) ;
#198 = DIRECTION ( 'NONE',  ( -3.491481338843133355E-15, 1.224646799147353207E-16, -1.000000000000000000 ) ) ;
#199 = ADVANCED_FACE ( 'NONE', ( #84 ), #159, .T. ) ;
#200 = AXIS2_PLACEMENT_3D ( 'NONE', #324, #198, #72 ) ;
#201 = EDGE_LOOP ( 'NONE', ( #258, #269, #271, #182 ) ) ;
#202 = DIRECTION ( 'NONE',  ( 0.0000000000000000000, 1.000000000000000000, 0.0000000000000000000 ) ) ;
#203 = AXIS2_PLACEMENT_3D ( 'NONE', #250, #165, #19 ) ;
#204 = EDGE_LOOP ( 'NONE', ( #148, #29, #206, #297 ) ) ;
#205 = DIRECTION ( 'NONE',  ( -3.491481338843133355E-15, 1.224646799147353207E-16, -1.000000000000000000 ) ) ;
#206 = ORIENTED_EDGE ( 'NONE', *, *, #320, .F. ) ;
#207 = SECURITY_CLASSIFICATION_LEVEL ( 'unclassified' ) ;
#208 = LINE ( 'NONE', #328, #3 ) ;
#209 = VERTEX_POINT ( 'NONE', #247 ) ;
#210 = CALENDAR_DATE ( 2021, 3, 9 ) ;
#211 = AXIS2_PLACEMENT_3D ( 'NONE', #77, #97, #202 ) ;
#212 = DIRECTION ( 'NONE',  ( 1.903218546456021928E-15, 0.8571673007021098911, 0.5150380749100583744 ) ) ;
#213 = APPLICATION_CONTEXT ( 'configuration controlled 3d designs of mechanical parts and assemblies' ) ;
#214 = LINE ( 'NONE', #331, #92 ) ;
#215 = EDGE_CURVE ( 'NONE', #160, #102, #336, .T. ) ;
#216 = APPROVAL_ROLE ( '' ) ;
#217 = DIRECTION ( 'NONE',  ( -3.491481338843133355E-15, 1.224646799147353207E-16, -1.000000000000000000 ) ) ;
#218 = CARTESIAN_POINT ( 'NONE',  ( 3.550589116321090473E-13, -5.000000000000021316, 102.0000000000000000 ) ) ;
#219 = AXIS2_PLACEMENT_3D ( 'NONE', #221, #196, #312 ) ;
#220 = CC_DESIGN_APPROVAL ( #69, ( #235 ) ) ;
#221 = CARTESIAN_POINT ( 'NONE',  ( 3.561310965619995770E-13, -1.249139735130300089E-14, 102.0000000000000000 ) ) ;
#222 = APPLICATION_PROTOCOL_DEFINITION ( 'international standard', 'config_control_design', 1994, #213 ) ;
#223 = PRODUCT_DEFINITION_FORMATION_WITH_SPECIFIED_SOURCE ( 'ANY', '', #134, .NOT_KNOWN. ) ;
#224 = ADVANCED_FACE ( 'NONE', ( #241 ), #139, .T. ) ;
#225 = CC_DESIGN_PERSON_AND_ORGANIZATION_ASSIGNMENT ( #9, #299, ( #134 ) ) ;
#226 = PLANE ( 'NONE',  #316 ) ;
#227 = APPROVAL_ROLE ( '' ) ;
#228 = CONICAL_SURFACE ( 'NONE', #27, 5.999999999999997335, 1.029744258676649871 ) ;
#229 = ORIENTED_EDGE ( 'NONE', *, *, #16, .F. ) ;
#230 = FACE_OUTER_BOUND ( 'NONE', #106, .T. ) ;
#231 = EDGE_LOOP ( 'NONE', ( #126, #151, #262, #26 ) ) ;
#232 = DIRECTION ( 'NONE',  ( 5.135813185032631277E-31, 1.000000000000000000, 1.445602896647339903E-16 ) ) ;
#233 = CARTESIAN_POINT ( 'NONE',  ( 3.561310965619995770E-13, 3.749399456654632525E-32, 102.0000000000000000 ) ) ;
#234 = EDGE_LOOP ( 'NONE', ( #52, #62 ) ) ;
#235 = SECURITY_CLASSIFICATION ( '', '', #207 ) ;
#236 = ORIENTED_EDGE ( 'NONE', *, *, #320, .T. ) ;
#237 = APPROVAL_STATUS ( 'not_yet_approved' ) ;
#238 = DIRECTION ( 'NONE',  ( -3.491481338843133355E-15, 1.224646799147353207E-16, -1.000000000000000000 ) ) ;
#239 = PERSON_AND_ORGANIZATION ( #98, #283 ) ;
#240 = CARTESIAN_POINT ( 'NONE',  ( 1.258736183148288964E-14, -4.415052202954838978E-16, 3.605163714165398492 ) ) ;
#241 = FACE_OUTER_BOUND ( 'NONE', #201, .T. ) ;
#242 = APPROVAL_STATUS ( 'not_yet_approved' ) ;
#243 = COORDINATED_UNIVERSAL_TIME_OFFSET ( 1, 0, .AHEAD. ) ;
#244 = AXIS2_PLACEMENT_3D ( 'NONE', #88, #192, #311 ) ;
#245 = CC_DESIGN_PERSON_AND_ORGANIZATION_ASSIGNMENT ( #239, #87, ( #120 ) ) ;
#246 = AXIS2_PLACEMENT_3D ( 'NONE', #161, #33, #113 ) ;
#247 = CARTESIAN_POINT ( 'NONE',  ( 1.332214991097130369E-14, 5.999999999999996447, 3.605163714165399380 ) ) ;
#248 = ADVANCED_BREP_SHAPE_REPRESENTATION ( '14939', ( #42, #274, #36 ), #71 ) ;
#249 = SHAPE_DEFINITION_REPRESENTATION ( #181, #248 ) ;
#250 = CARTESIAN_POINT ( 'NONE',  ( 3.561310965619995770E-13, -1.249139735130300089E-14, 102.0000000000000000 ) ) ;
#251 = APPROVAL_ROLE ( '' ) ;
#252 = DIRECTION ( 'NONE',  ( 5.135813185032631277E-31, 1.000000000000000000, 1.445602896647339903E-16 ) ) ;
#253 = VECTOR ( 'NONE', #238, 1000.000000000000000 ) ;
#254 = EDGE_CURVE ( 'NONE', #48, #209, #214, .T. ) ;
#255 = ADVANCED_FACE ( 'NONE', ( #85 ), #322, .T. ) ;
#256 = DIRECTION ( 'NONE',  ( -3.491481338843133355E-15, 1.224646799147353207E-16, -1.000000000000000000 ) ) ;
#257 = CLOSED_SHELL ( 'NONE', ( #255, #18, #295, #199, #61, #105 ) ) ;
#258 = ORIENTED_EDGE ( 'NONE', *, *, #5, .F. ) ;
#259 = CC_DESIGN_APPROVAL ( #335, ( #120 ) ) ;
#260 = CARTESIAN_POINT ( 'NONE',  ( 1.258736183148288964E-14, -4.415052202954838978E-16, 3.605163714165398492 ) ) ;
#261 = CC_DESIGN_PERSON_AND_ORGANIZATION_ASSIGNMENT ( #327, #302, ( #223 ) ) ;
#262 = ORIENTED_EDGE ( 'NONE', *, *, #34, .F. ) ;
#263 = CARTESIAN_POINT ( 'NONE',  ( 1.222018468595096801E-13, -4.286263797015736496E-15, 35.00000000000000000 ) ) ;
#264 = EDGE_LOOP ( 'NONE', ( #291, #330, #51 ) ) ;
#265 = FACE_OUTER_BOUND ( 'NONE', #296, .T. ) ;
#266 = ADVANCED_FACE ( 'NONE', ( #164 ), #228, .T. ) ;
#267 = ORIENTED_EDGE ( 'NONE', *, *, #332, .F. ) ;
#268 = FACE_OUTER_BOUND ( 'NONE', #204, .T. ) ;
#269 = ORIENTED_EDGE ( 'NONE', *, *, #44, .T. ) ;
#270 = LINE ( 'NONE', #28, #253 ) ;
#271 = ORIENTED_EDGE ( 'NONE', *, *, #168, .T. ) ;
#272 = PERSON_AND_ORGANIZATION ( #98, #283 ) ;
#273 = CARTESIAN_POINT ( 'NONE',  ( 0.0000000000000000000, 0.0000000000000000000, 0.0000000000000000000 ) ) ;
#274 = MANIFOLD_SOLID_BREP ( 'Corps-Déplacer/Copier1[2]', #70 ) ;
#275 = CALENDAR_DATE ( 2021, 3, 9 ) ;
#276 = DIRECTION ( 'NONE',  ( 3.491481338843133355E-15, -1.224646799147353207E-16, 1.000000000000000000 ) ) ;
#277 = APPROVAL_STATUS ( 'not_yet_approved' ) ;
#278 = CARTESIAN_POINT ( 'NONE',  ( 0.0000000000000000000, 0.0000000000000000000, 0.0000000000000000000 ) ) ;
#279 = CC_DESIGN_PERSON_AND_ORGANIZATION_ASSIGNMENT ( #56, #114, ( #235 ) ) ;
#280 = CC_DESIGN_APPROVAL ( #49, ( #223 ) ) ;
#281 = DATE_AND_TIME ( #210, #173 ) ;
#282 = CARTESIAN_POINT ( 'NONE',  ( 3.561310965619995770E-13, -1.249139735130300089E-14, 102.0000000000000000 ) ) ;
#283 = ORGANIZATION ( 'UNSPECIFIED', 'UNSPECIFIED', '' ) ;
#284 = EDGE_CURVE ( 'NONE', #78, #321, #307, .T. ) ;
#285 = EDGE_CURVE ( 'NONE', #23, #321, #172, .T. ) ;
#286 = CARTESIAN_POINT ( 'NONE',  ( 3.567434199615732780E-13, -5.000000000000021316, 102.0000000000000000 ) ) ;
#287 = VECTOR ( 'NONE', #256, 1000.000000000000000 ) ;
#288 = LOCAL_TIME ( 9, 21, 21.00000000000000000, #162 ) ;
#289 = CC_DESIGN_PERSON_AND_ORGANIZATION_ASSIGNMENT ( #35, #67, ( #223 ) ) ;
#290 = CIRCLE ( 'NONE', #141, 5.000000000000008882 ) ;
#291 = ORIENTED_EDGE ( 'NONE', *, *, #254, .F. ) ;
#292 = AXIS2_PLACEMENT_3D ( 'NONE', #260, #129, #232 ) ;
#293 = DIRECTION ( 'NONE',  ( -3.491481338843133355E-15, 1.224646799147353207E-16, -1.000000000000000000 ) ) ;
#294 = ORIENTED_EDGE ( 'NONE', *, *, #285, .T. ) ;
#295 = ADVANCED_FACE ( 'NONE', ( #230 ), #127, .F. ) ;
#296 = EDGE_LOOP ( 'NONE', ( #180, #229 ) ) ;
#297 = ORIENTED_EDGE ( 'NONE', *, *, #168, .F. ) ;
#298 = CARTESIAN_POINT ( 'NONE',  ( 3.561310965619995770E-13, 4.999999999999996447, 102.0000000000000000 ) ) ;
#299 = PERSON_AND_ORGANIZATION_ROLE ( 'design_owner' ) ;
#300 = ORIENTED_EDGE ( 'NONE', *, *, #285, .F. ) ;
#301 = CARTESIAN_POINT ( 'NONE',  ( 2.381555191208213276E-13, -6.000000000000021316, 100.9999999999999716 ) ) ;
#302 = PERSON_AND_ORGANIZATION_ROLE ( 'design_supplier' ) ;
#303 = VECTOR ( 'NONE', #21, 1000.000000000000000 ) ;
#304 =( NAMED_UNIT ( * ) SI_UNIT ( $, .STERADIAN. ) SOLID_ANGLE_UNIT ( ) );
#305 = AXIS2_PLACEMENT_3D ( 'NONE', #306, #205, #81 ) ;
#306 = CARTESIAN_POINT ( 'NONE',  ( 0.0000000000000000000, 0.0000000000000000000, 0.0000000000000000000 ) ) ;
#307 = LINE ( 'NONE', #100, #15 ) ;
#308 = DIRECTION ( 'NONE',  ( -3.491481338843133355E-15, 1.224646799147353207E-16, -1.000000000000000000 ) ) ;
#309 = CARTESIAN_POINT ( 'NONE',  ( 7.347880794884093112E-16, -5.999999999999999112, -7.347880794884143402E-16 ) ) ;
#310 = CALENDAR_DATE ( 2021, 3, 9 ) ;
#311 = DIRECTION ( 'NONE',  ( 0.0000000000000000000, 1.000000000000000000, 0.0000000000000000000 ) ) ;
#312 = DIRECTION ( 'NONE',  ( 0.0000000000000000000, 1.000000000000000000, 0.0000000000000000000 ) ) ;
#313 = APPROVAL_DATE_TIME ( #158, #49 ) ;
#314 = DIRECTION ( 'NONE',  ( 0.0000000000000000000, 1.000000000000000000, 0.0000000000000000000 ) ) ;
#315 = APPROVAL_PERSON_ORGANIZATION ( #272, #49, #251 ) ;
#316 = AXIS2_PLACEMENT_3D ( 'NONE', #123, #317, #50 ) ;
#317 = DIRECTION ( 'NONE',  ( 3.491481338843133355E-15, -1.224646799147353207E-16, 1.000000000000000000 ) ) ;
#318 = DIRECTION ( 'NONE',  ( -3.491481338843133355E-15, 1.224646799147353207E-16, -1.000000000000000000 ) ) ;
#319 = ORIENTED_EDGE ( 'NONE', *, *, #332, .T. ) ;
#320 = EDGE_CURVE ( 'NONE', #209, #131, #112, .T. ) ;
#321 = VERTEX_POINT ( 'NONE', #177 ) ;
#322 = CONICAL_SURFACE ( 'NONE', #125, 5.000000000000008882, 0.7853981633974410625 ) ;
#323 =( LENGTH_UNIT ( ) NAMED_UNIT ( * ) SI_UNIT ( .MILLI., .METRE. ) );
#324 = CARTESIAN_POINT ( 'NONE',  ( 1.222018468595096801E-13, -4.286263797015736496E-15, 35.00000000000000000 ) ) ;
#325 = DIRECTION ( 'NONE',  ( 1.798245827342159528E-15, -0.8571673007021100021, 0.5150380749100580413 ) ) ;
#326 = ORIENTED_EDGE ( 'NONE', *, *, #34, .T. ) ;
#327 = PERSON_AND_ORGANIZATION ( #98, #283 ) ;
#328 = CARTESIAN_POINT ( 'NONE',  ( 3.561310965619995770E-13, 4.999999999999996447, 102.0000000000000000 ) ) ;
#329 = ORIENTED_EDGE ( 'NONE', *, *, #284, .T. ) ;
#330 = ORIENTED_EDGE ( 'NONE', *, *, #153, .T. ) ;
#331 = CARTESIAN_POINT ( 'NONE',  ( 1.332214991097130369E-14, 5.999999999999996447, 3.605163714165399380 ) ) ;
#332 = EDGE_CURVE ( 'NONE', #157, #78, #1, .T. ) ;
#333 = DIRECTION ( 'NONE',  ( 4.275831445896958607E-31, 1.000000000000000000, 1.224646799147353207E-16 ) ) ;
#334 = PERSON_AND_ORGANIZATION ( #98, #283 ) ;
#335 = APPROVAL ( #242, 'UNSPECIFIED' ) ;
#336 = CIRCLE ( 'NONE', #246, 6.000000000000000888 ) ;
#337 = CALENDAR_DATE ( 2021, 3, 9 ) ;
ENDSEC;
END-ISO-10303-21;
